ISO-10303-21;
HEADER;
/* Generated by software containing ST-Developer
 * from STEP Tools, Inc. (www.steptools.com) 
 */
/* OPTION: using custom renumber hook */

FILE_DESCRIPTION(
/* description */ ('STEP AP214'),
/* implementation_level */ '2;1');

FILE_NAME(
/* name */ '092071(high)',
/* time_stamp */ '2025-01-22T09:50:40+01:00',
/* author */ ('License CC BY-ND 4.0'),
/* organization */ ('CADENAS'),
/* preprocessor_version */ 'ST-DEVELOPER v19.3',
/* originating_system */ 'PARTsolutions',
/* authorisation */ '  ');

FILE_SCHEMA (('AUTOMOTIVE_DESIGN {1 0 10303 214 3 1 1}'));
ENDSEC;

DATA;
#10=PROPERTY_DEFINITION_REPRESENTATION(#14,#12);
#11=PROPERTY_DEFINITION_REPRESENTATION(#15,#13);
#12=REPRESENTATION('',(#16),#630);
#13=REPRESENTATION('',(#17),#630);
#14=PROPERTY_DEFINITION('pmi validation property','',#635);
#15=PROPERTY_DEFINITION('pmi validation property','',#635);
#16=VALUE_REPRESENTATION_ITEM('number of annotations',COUNT_MEASURE(0.));
#17=VALUE_REPRESENTATION_ITEM('number of views',COUNT_MEASURE(0.));
#18=SHAPE_REPRESENTATION_RELATIONSHIP('','',#380,#19);
#19=ADVANCED_BREP_SHAPE_REPRESENTATION('',(#378),#630);
#20=CIRCLE('',#384,0.349999999999993);
#21=CIRCLE('',#385,0.349999999999993);
#22=CIRCLE('',#388,10.0000000000001);
#23=CIRCLE('',#389,10.0000000000001);
#24=CIRCLE('',#391,0.300000533091551);
#25=CIRCLE('',#392,0.300000533091551);
#26=CIRCLE('',#394,9.40000000000002);
#27=CIRCLE('',#395,9.40000000000002);
#28=CIRCLE('',#401,9.39999999999998);
#29=CIRCLE('',#402,9.39999999999998);
#30=CIRCLE('',#404,0.30000053309158);
#31=CIRCLE('',#405,0.30000053309158);
#32=CIRCLE('',#407,10.0000000000002);
#33=CIRCLE('',#408,10.0000000000002);
#34=CIRCLE('',#411,0.349999999999995);
#35=CIRCLE('',#412,0.349999999999995);
#36=CYLINDRICAL_SURFACE('',#383,0.349999999999993);
#37=CYLINDRICAL_SURFACE('',#387,10.0000000000001);
#38=CYLINDRICAL_SURFACE('',#390,0.300000533091551);
#39=CYLINDRICAL_SURFACE('',#393,9.40000000000002);
#40=CYLINDRICAL_SURFACE('',#400,9.39999999999998);
#41=CYLINDRICAL_SURFACE('',#403,0.30000053309158);
#42=CYLINDRICAL_SURFACE('',#406,10.0000000000002);
#43=CYLINDRICAL_SURFACE('',#410,0.349999999999995);
#44=ORIENTED_EDGE('',*,*,#146,.F.);
#45=ORIENTED_EDGE('',*,*,#147,.F.);
#46=ORIENTED_EDGE('',*,*,#148,.T.);
#47=ORIENTED_EDGE('',*,*,#149,.T.);
#48=ORIENTED_EDGE('',*,*,#150,.F.);
#49=ORIENTED_EDGE('',*,*,#149,.F.);
#50=ORIENTED_EDGE('',*,*,#151,.T.);
#51=ORIENTED_EDGE('',*,*,#152,.T.);
#52=ORIENTED_EDGE('',*,*,#153,.F.);
#53=ORIENTED_EDGE('',*,*,#152,.F.);
#54=ORIENTED_EDGE('',*,*,#154,.T.);
#55=ORIENTED_EDGE('',*,*,#155,.T.);
#56=ORIENTED_EDGE('',*,*,#156,.F.);
#57=ORIENTED_EDGE('',*,*,#155,.F.);
#58=ORIENTED_EDGE('',*,*,#157,.T.);
#59=ORIENTED_EDGE('',*,*,#158,.T.);
#60=ORIENTED_EDGE('',*,*,#159,.F.);
#61=ORIENTED_EDGE('',*,*,#158,.F.);
#62=ORIENTED_EDGE('',*,*,#160,.T.);
#63=ORIENTED_EDGE('',*,*,#161,.T.);
#64=ORIENTED_EDGE('',*,*,#162,.T.);
#65=ORIENTED_EDGE('',*,*,#161,.F.);
#66=ORIENTED_EDGE('',*,*,#163,.F.);
#67=ORIENTED_EDGE('',*,*,#164,.T.);
#68=ORIENTED_EDGE('',*,*,#165,.F.);
#69=ORIENTED_EDGE('',*,*,#164,.F.);
#70=ORIENTED_EDGE('',*,*,#166,.T.);
#71=ORIENTED_EDGE('',*,*,#167,.T.);
#72=ORIENTED_EDGE('',*,*,#168,.F.);
#73=ORIENTED_EDGE('',*,*,#167,.F.);
#74=ORIENTED_EDGE('',*,*,#169,.T.);
#75=ORIENTED_EDGE('',*,*,#170,.T.);
#76=ORIENTED_EDGE('',*,*,#171,.F.);
#77=ORIENTED_EDGE('',*,*,#170,.F.);
#78=ORIENTED_EDGE('',*,*,#172,.T.);
#79=ORIENTED_EDGE('',*,*,#173,.T.);
#80=ORIENTED_EDGE('',*,*,#174,.F.);
#81=ORIENTED_EDGE('',*,*,#173,.F.);
#82=ORIENTED_EDGE('',*,*,#175,.T.);
#83=ORIENTED_EDGE('',*,*,#176,.T.);
#84=ORIENTED_EDGE('',*,*,#177,.T.);
#85=ORIENTED_EDGE('',*,*,#176,.F.);
#86=ORIENTED_EDGE('',*,*,#178,.F.);
#87=ORIENTED_EDGE('',*,*,#179,.T.);
#88=ORIENTED_EDGE('',*,*,#180,.F.);
#89=ORIENTED_EDGE('',*,*,#179,.F.);
#90=ORIENTED_EDGE('',*,*,#181,.T.);
#91=ORIENTED_EDGE('',*,*,#182,.T.);
#92=ORIENTED_EDGE('',*,*,#183,.F.);
#93=ORIENTED_EDGE('',*,*,#182,.F.);
#94=ORIENTED_EDGE('',*,*,#184,.T.);
#95=ORIENTED_EDGE('',*,*,#185,.T.);
#96=ORIENTED_EDGE('',*,*,#186,.F.);
#97=ORIENTED_EDGE('',*,*,#185,.F.);
#98=ORIENTED_EDGE('',*,*,#187,.T.);
#99=ORIENTED_EDGE('',*,*,#188,.T.);
#100=ORIENTED_EDGE('',*,*,#189,.F.);
#101=ORIENTED_EDGE('',*,*,#188,.F.);
#102=ORIENTED_EDGE('',*,*,#190,.T.);
#103=ORIENTED_EDGE('',*,*,#191,.T.);
#104=ORIENTED_EDGE('',*,*,#192,.F.);
#105=ORIENTED_EDGE('',*,*,#191,.F.);
#106=ORIENTED_EDGE('',*,*,#193,.T.);
#107=ORIENTED_EDGE('',*,*,#194,.T.);
#108=ORIENTED_EDGE('',*,*,#195,.F.);
#109=ORIENTED_EDGE('',*,*,#194,.F.);
#110=ORIENTED_EDGE('',*,*,#196,.T.);
#111=ORIENTED_EDGE('',*,*,#147,.T.);
#112=ORIENTED_EDGE('',*,*,#148,.F.);
#113=ORIENTED_EDGE('',*,*,#196,.F.);
#114=ORIENTED_EDGE('',*,*,#193,.F.);
#115=ORIENTED_EDGE('',*,*,#190,.F.);
#116=ORIENTED_EDGE('',*,*,#187,.F.);
#117=ORIENTED_EDGE('',*,*,#184,.F.);
#118=ORIENTED_EDGE('',*,*,#181,.F.);
#119=ORIENTED_EDGE('',*,*,#178,.T.);
#120=ORIENTED_EDGE('',*,*,#175,.F.);
#121=ORIENTED_EDGE('',*,*,#172,.F.);
#122=ORIENTED_EDGE('',*,*,#169,.F.);
#123=ORIENTED_EDGE('',*,*,#166,.F.);
#124=ORIENTED_EDGE('',*,*,#163,.T.);
#125=ORIENTED_EDGE('',*,*,#160,.F.);
#126=ORIENTED_EDGE('',*,*,#157,.F.);
#127=ORIENTED_EDGE('',*,*,#154,.F.);
#128=ORIENTED_EDGE('',*,*,#151,.F.);
#129=ORIENTED_EDGE('',*,*,#146,.T.);
#130=ORIENTED_EDGE('',*,*,#150,.T.);
#131=ORIENTED_EDGE('',*,*,#153,.T.);
#132=ORIENTED_EDGE('',*,*,#156,.T.);
#133=ORIENTED_EDGE('',*,*,#159,.T.);
#134=ORIENTED_EDGE('',*,*,#162,.F.);
#135=ORIENTED_EDGE('',*,*,#165,.T.);
#136=ORIENTED_EDGE('',*,*,#168,.T.);
#137=ORIENTED_EDGE('',*,*,#171,.T.);
#138=ORIENTED_EDGE('',*,*,#174,.T.);
#139=ORIENTED_EDGE('',*,*,#177,.F.);
#140=ORIENTED_EDGE('',*,*,#180,.T.);
#141=ORIENTED_EDGE('',*,*,#183,.T.);
#142=ORIENTED_EDGE('',*,*,#186,.T.);
#143=ORIENTED_EDGE('',*,*,#189,.T.);
#144=ORIENTED_EDGE('',*,*,#192,.T.);
#145=ORIENTED_EDGE('',*,*,#195,.T.);
#146=EDGE_CURVE('',#197,#198,#231,.T.);
#147=EDGE_CURVE('',#199,#197,#232,.T.);
#148=EDGE_CURVE('',#199,#200,#233,.T.);
#149=EDGE_CURVE('',#200,#198,#234,.T.);
#150=EDGE_CURVE('',#198,#201,#20,.T.);
#151=EDGE_CURVE('',#200,#202,#21,.T.);
#152=EDGE_CURVE('',#202,#201,#235,.T.);
#153=EDGE_CURVE('',#201,#203,#236,.T.);
#154=EDGE_CURVE('',#202,#204,#237,.T.);
#155=EDGE_CURVE('',#204,#203,#238,.T.);
#156=EDGE_CURVE('',#203,#205,#22,.T.);
#157=EDGE_CURVE('',#204,#206,#23,.T.);
#158=EDGE_CURVE('',#206,#205,#239,.T.);
#159=EDGE_CURVE('',#205,#207,#24,.T.);
#160=EDGE_CURVE('',#206,#208,#25,.T.);
#161=EDGE_CURVE('',#208,#207,#240,.T.);
#162=EDGE_CURVE('',#209,#207,#26,.T.);
#163=EDGE_CURVE('',#210,#208,#27,.T.);
#164=EDGE_CURVE('',#210,#209,#241,.T.);
#165=EDGE_CURVE('',#209,#211,#242,.T.);
#166=EDGE_CURVE('',#210,#212,#243,.T.);
#167=EDGE_CURVE('',#212,#211,#244,.T.);
#168=EDGE_CURVE('',#211,#213,#245,.T.);
#169=EDGE_CURVE('',#212,#214,#246,.T.);
#170=EDGE_CURVE('',#214,#213,#247,.T.);
#171=EDGE_CURVE('',#213,#215,#248,.T.);
#172=EDGE_CURVE('',#214,#216,#249,.T.);
#173=EDGE_CURVE('',#216,#215,#250,.T.);
#174=EDGE_CURVE('',#215,#217,#251,.T.);
#175=EDGE_CURVE('',#216,#218,#252,.T.);
#176=EDGE_CURVE('',#218,#217,#253,.T.);
#177=EDGE_CURVE('',#219,#217,#28,.T.);
#178=EDGE_CURVE('',#220,#218,#29,.T.);
#179=EDGE_CURVE('',#220,#219,#254,.T.);
#180=EDGE_CURVE('',#219,#221,#30,.T.);
#181=EDGE_CURVE('',#220,#222,#31,.T.);
#182=EDGE_CURVE('',#222,#221,#255,.T.);
#183=EDGE_CURVE('',#221,#223,#32,.T.);
#184=EDGE_CURVE('',#222,#224,#33,.T.);
#185=EDGE_CURVE('',#224,#223,#256,.T.);
#186=EDGE_CURVE('',#223,#225,#257,.T.);
#187=EDGE_CURVE('',#224,#226,#258,.T.);
#188=EDGE_CURVE('',#226,#225,#259,.T.);
#189=EDGE_CURVE('',#225,#227,#34,.T.);
#190=EDGE_CURVE('',#226,#228,#35,.T.);
#191=EDGE_CURVE('',#228,#227,#260,.T.);
#192=EDGE_CURVE('',#227,#229,#261,.T.);
#193=EDGE_CURVE('',#228,#230,#262,.T.);
#194=EDGE_CURVE('',#230,#229,#263,.T.);
#195=EDGE_CURVE('',#229,#197,#264,.T.);
#196=EDGE_CURVE('',#230,#199,#265,.T.);
#197=VERTEX_POINT('',#527);
#198=VERTEX_POINT('',#528);
#199=VERTEX_POINT('',#530);
#200=VERTEX_POINT('',#532);
#201=VERTEX_POINT('',#536);
#202=VERTEX_POINT('',#538);
#203=VERTEX_POINT('',#542);
#204=VERTEX_POINT('',#544);
#205=VERTEX_POINT('',#548);
#206=VERTEX_POINT('',#550);
#207=VERTEX_POINT('',#554);
#208=VERTEX_POINT('',#556);
#209=VERTEX_POINT('',#560);
#210=VERTEX_POINT('',#562);
#211=VERTEX_POINT('',#566);
#212=VERTEX_POINT('',#568);
#213=VERTEX_POINT('',#572);
#214=VERTEX_POINT('',#574);
#215=VERTEX_POINT('',#578);
#216=VERTEX_POINT('',#580);
#217=VERTEX_POINT('',#584);
#218=VERTEX_POINT('',#586);
#219=VERTEX_POINT('',#590);
#220=VERTEX_POINT('',#592);
#221=VERTEX_POINT('',#596);
#222=VERTEX_POINT('',#598);
#223=VERTEX_POINT('',#602);
#224=VERTEX_POINT('',#604);
#225=VERTEX_POINT('',#608);
#226=VERTEX_POINT('',#610);
#227=VERTEX_POINT('',#614);
#228=VERTEX_POINT('',#616);
#229=VERTEX_POINT('',#620);
#230=VERTEX_POINT('',#622);
#231=LINE('',#526,#266);
#232=LINE('',#529,#267);
#233=LINE('',#531,#268);
#234=LINE('',#533,#269);
#235=LINE('',#539,#270);
#236=LINE('',#541,#271);
#237=LINE('',#543,#272);
#238=LINE('',#545,#273);
#239=LINE('',#551,#274);
#240=LINE('',#557,#275);
#241=LINE('',#563,#276);
#242=LINE('',#565,#277);
#243=LINE('',#567,#278);
#244=LINE('',#569,#279);
#245=LINE('',#571,#280);
#246=LINE('',#573,#281);
#247=LINE('',#575,#282);
#248=LINE('',#577,#283);
#249=LINE('',#579,#284);
#250=LINE('',#581,#285);
#251=LINE('',#583,#286);
#252=LINE('',#585,#287);
#253=LINE('',#587,#288);
#254=LINE('',#593,#289);
#255=LINE('',#599,#290);
#256=LINE('',#605,#291);
#257=LINE('',#607,#292);
#258=LINE('',#609,#293);
#259=LINE('',#611,#294);
#260=LINE('',#617,#295);
#261=LINE('',#619,#296);
#262=LINE('',#621,#297);
#263=LINE('',#623,#298);
#264=LINE('',#625,#299);
#265=LINE('',#626,#300);
#266=VECTOR('',#421,1000.);
#267=VECTOR('',#422,1000.);
#268=VECTOR('',#423,1000.);
#269=VECTOR('',#424,1000.);
#270=VECTOR('',#431,1000.);
#271=VECTOR('',#434,1000.);
#272=VECTOR('',#435,1000.);
#273=VECTOR('',#436,1000.);
#274=VECTOR('',#443,1000.);
#275=VECTOR('',#450,1000.);
#276=VECTOR('',#457,1000.);
#277=VECTOR('',#460,1000.);
#278=VECTOR('',#461,1000.);
#279=VECTOR('',#462,1000.);
#280=VECTOR('',#465,1000.);
#281=VECTOR('',#466,1000.);
#282=VECTOR('',#467,1000.);
#283=VECTOR('',#470,1000.);
#284=VECTOR('',#471,1000.);
#285=VECTOR('',#472,1000.);
#286=VECTOR('',#475,1000.);
#287=VECTOR('',#476,1000.);
#288=VECTOR('',#477,1000.);
#289=VECTOR('',#484,1000.);
#290=VECTOR('',#491,1000.);
#291=VECTOR('',#498,1000.);
#292=VECTOR('',#501,1000.);
#293=VECTOR('',#502,1000.);
#294=VECTOR('',#503,1000.);
#295=VECTOR('',#510,1000.);
#296=VECTOR('',#513,1000.);
#297=VECTOR('',#514,1000.);
#298=VECTOR('',#515,1000.);
#299=VECTOR('',#518,1000.);
#300=VECTOR('',#519,1000.);
#301=EDGE_LOOP('',(#44,#45,#46,#47));
#302=EDGE_LOOP('',(#48,#49,#50,#51));
#303=EDGE_LOOP('',(#52,#53,#54,#55));
#304=EDGE_LOOP('',(#56,#57,#58,#59));
#305=EDGE_LOOP('',(#60,#61,#62,#63));
#306=EDGE_LOOP('',(#64,#65,#66,#67));
#307=EDGE_LOOP('',(#68,#69,#70,#71));
#308=EDGE_LOOP('',(#72,#73,#74,#75));
#309=EDGE_LOOP('',(#76,#77,#78,#79));
#310=EDGE_LOOP('',(#80,#81,#82,#83));
#311=EDGE_LOOP('',(#84,#85,#86,#87));
#312=EDGE_LOOP('',(#88,#89,#90,#91));
#313=EDGE_LOOP('',(#92,#93,#94,#95));
#314=EDGE_LOOP('',(#96,#97,#98,#99));
#315=EDGE_LOOP('',(#100,#101,#102,#103));
#316=EDGE_LOOP('',(#104,#105,#106,#107));
#317=EDGE_LOOP('',(#108,#109,#110,#111));
#318=EDGE_LOOP('',(#112,#113,#114,#115,#116,#117,#118,#119,#120,#121,#122,
#123,#124,#125,#126,#127,#128));
#319=EDGE_LOOP('',(#129,#130,#131,#132,#133,#134,#135,#136,#137,#138,#139,
#140,#141,#142,#143,#144,#145));
#320=FACE_BOUND('',#301,.T.);
#321=FACE_BOUND('',#302,.T.);
#322=FACE_BOUND('',#303,.T.);
#323=FACE_BOUND('',#304,.T.);
#324=FACE_BOUND('',#305,.T.);
#325=FACE_BOUND('',#306,.T.);
#326=FACE_BOUND('',#307,.T.);
#327=FACE_BOUND('',#308,.T.);
#328=FACE_BOUND('',#309,.T.);
#329=FACE_BOUND('',#310,.T.);
#330=FACE_BOUND('',#311,.T.);
#331=FACE_BOUND('',#312,.T.);
#332=FACE_BOUND('',#313,.T.);
#333=FACE_BOUND('',#314,.T.);
#334=FACE_BOUND('',#315,.T.);
#335=FACE_BOUND('',#316,.T.);
#336=FACE_BOUND('',#317,.T.);
#337=FACE_BOUND('',#318,.T.);
#338=FACE_BOUND('',#319,.T.);
#339=PLANE('',#382);
#340=PLANE('',#386);
#341=PLANE('',#396);
#342=PLANE('',#397);
#343=PLANE('',#398);
#344=PLANE('',#399);
#345=PLANE('',#409);
#346=PLANE('',#413);
#347=PLANE('',#414);
#348=PLANE('',#415);
#349=PLANE('',#416);
#350=ADVANCED_FACE('',(#320),#339,.T.);
#351=ADVANCED_FACE('',(#321),#36,.T.);
#352=ADVANCED_FACE('',(#322),#340,.T.);
#353=ADVANCED_FACE('',(#323),#37,.T.);
#354=ADVANCED_FACE('',(#324),#38,.T.);
#355=ADVANCED_FACE('',(#325),#39,.F.);
#356=ADVANCED_FACE('',(#326),#341,.T.);
#357=ADVANCED_FACE('',(#327),#342,.T.);
#358=ADVANCED_FACE('',(#328),#343,.T.);
#359=ADVANCED_FACE('',(#329),#344,.T.);
#360=ADVANCED_FACE('',(#330),#40,.F.);
#361=ADVANCED_FACE('',(#331),#41,.T.);
#362=ADVANCED_FACE('',(#332),#42,.T.);
#363=ADVANCED_FACE('',(#333),#345,.T.);
#364=ADVANCED_FACE('',(#334),#43,.T.);
#365=ADVANCED_FACE('',(#335),#346,.T.);
#366=ADVANCED_FACE('',(#336),#347,.T.);
#367=ADVANCED_FACE('',(#337),#348,.F.);
#368=ADVANCED_FACE('',(#338),#349,.T.);
#369=CLOSED_SHELL('',(#350,#351,#352,#353,#354,#355,#356,#357,#358,#359,
#360,#361,#362,#363,#364,#365,#366,#367,#368));
#370=STYLED_ITEM('',(#371),#378);
#371=PRESENTATION_STYLE_ASSIGNMENT((#372));
#372=SURFACE_STYLE_USAGE(.BOTH.,#373);
#373=SURFACE_SIDE_STYLE('',(#374));
#374=SURFACE_STYLE_FILL_AREA(#375);
#375=FILL_AREA_STYLE('',(#376));
#376=FILL_AREA_STYLE_COLOUR('',#377);
#377=COLOUR_RGB('',0.792156875133514,0.792156875133514,0.792156875133514);
#378=MANIFOLD_SOLID_BREP('092071(high)',#369);
#379=SHAPE_DEFINITION_REPRESENTATION(#635,#380);
#380=SHAPE_REPRESENTATION('092071(high)',(#381),#630);
#381=AXIS2_PLACEMENT_3D('',#524,#417,#418);
#382=AXIS2_PLACEMENT_3D('',#525,#419,#420);
#383=AXIS2_PLACEMENT_3D('',#534,#425,#426);
#384=AXIS2_PLACEMENT_3D('',#535,#427,#428);
#385=AXIS2_PLACEMENT_3D('',#537,#429,#430);
#386=AXIS2_PLACEMENT_3D('',#540,#432,#433);
#387=AXIS2_PLACEMENT_3D('',#546,#437,#438);
#388=AXIS2_PLACEMENT_3D('',#547,#439,#440);
#389=AXIS2_PLACEMENT_3D('',#549,#441,#442);
#390=AXIS2_PLACEMENT_3D('',#552,#444,#445);
#391=AXIS2_PLACEMENT_3D('',#553,#446,#447);
#392=AXIS2_PLACEMENT_3D('',#555,#448,#449);
#393=AXIS2_PLACEMENT_3D('',#558,#451,#452);
#394=AXIS2_PLACEMENT_3D('',#559,#453,#454);
#395=AXIS2_PLACEMENT_3D('',#561,#455,#456);
#396=AXIS2_PLACEMENT_3D('',#564,#458,#459);
#397=AXIS2_PLACEMENT_3D('',#570,#463,#464);
#398=AXIS2_PLACEMENT_3D('',#576,#468,#469);
#399=AXIS2_PLACEMENT_3D('',#582,#473,#474);
#400=AXIS2_PLACEMENT_3D('',#588,#478,#479);
#401=AXIS2_PLACEMENT_3D('',#589,#480,#481);
#402=AXIS2_PLACEMENT_3D('',#591,#482,#483);
#403=AXIS2_PLACEMENT_3D('',#594,#485,#486);
#404=AXIS2_PLACEMENT_3D('',#595,#487,#488);
#405=AXIS2_PLACEMENT_3D('',#597,#489,#490);
#406=AXIS2_PLACEMENT_3D('',#600,#492,#493);
#407=AXIS2_PLACEMENT_3D('',#601,#494,#495);
#408=AXIS2_PLACEMENT_3D('',#603,#496,#497);
#409=AXIS2_PLACEMENT_3D('',#606,#499,#500);
#410=AXIS2_PLACEMENT_3D('',#612,#504,#505);
#411=AXIS2_PLACEMENT_3D('',#613,#506,#507);
#412=AXIS2_PLACEMENT_3D('',#615,#508,#509);
#413=AXIS2_PLACEMENT_3D('',#618,#511,#512);
#414=AXIS2_PLACEMENT_3D('',#624,#516,#517);
#415=AXIS2_PLACEMENT_3D('',#627,#520,#521);
#416=AXIS2_PLACEMENT_3D('',#628,#522,#523);
#417=DIRECTION('',(0.,0.,1.));
#418=DIRECTION('',(1.,0.,0.));
#419=DIRECTION('',(-1.,0.,0.));
#420=DIRECTION('',(0.,0.,1.));
#421=DIRECTION('',(0.,-1.,0.));
#422=DIRECTION('',(0.,0.,1.));
#423=DIRECTION('',(0.,-1.,0.));
#424=DIRECTION('',(0.,0.,1.));
#425=DIRECTION('',(0.,0.,1.));
#426=DIRECTION('',(1.,0.,0.));
#427=DIRECTION('',(0.,0.,1.));
#428=DIRECTION('',(1.,0.,0.));
#429=DIRECTION('',(0.,0.,1.));
#430=DIRECTION('',(1.,0.,0.));
#431=DIRECTION('',(0.,0.,1.));
#432=DIRECTION('',(-0.514986420831278,-0.857198335485662,0.));
#433=DIRECTION('',(0.857198335485662,-0.514986420831279,0.));
#434=DIRECTION('',(0.857198335485662,-0.514986420831278,0.));
#435=DIRECTION('',(0.857198335485662,-0.514986420831278,0.));
#436=DIRECTION('',(0.,0.,1.));
#437=DIRECTION('',(0.,0.,1.));
#438=DIRECTION('',(1.,0.,0.));
#439=DIRECTION('',(0.,0.,1.));
#440=DIRECTION('',(1.,0.,0.));
#441=DIRECTION('',(0.,0.,1.));
#442=DIRECTION('',(1.,0.,0.));
#443=DIRECTION('',(0.,0.,1.));
#444=DIRECTION('',(0.,0.,1.));
#445=DIRECTION('',(1.,0.,0.));
#446=DIRECTION('',(0.,0.,1.));
#447=DIRECTION('',(1.,0.,0.));
#448=DIRECTION('',(0.,0.,1.));
#449=DIRECTION('',(1.,0.,0.));
#450=DIRECTION('',(0.,0.,1.));
#451=DIRECTION('',(0.,0.,1.));
#452=DIRECTION('',(1.,0.,0.));
#453=DIRECTION('',(0.,0.,1.));
#454=DIRECTION('',(1.,0.,0.));
#455=DIRECTION('',(0.,0.,1.));
#456=DIRECTION('',(1.,0.,0.));
#457=DIRECTION('',(0.,0.,1.));
#458=DIRECTION('',(0.,-1.,0.));
#459=DIRECTION('',(0.,0.,-1.));
#460=DIRECTION('',(1.,0.,0.));
#461=DIRECTION('',(1.,0.,0.));
#462=DIRECTION('',(0.,0.,1.));
#463=DIRECTION('',(-0.347314355823594,-0.937748760723704,0.));
#464=DIRECTION('',(0.937748760723704,-0.347314355823594,0.));
#465=DIRECTION('',(0.937748760723704,-0.347314355823594,0.));
#466=DIRECTION('',(0.937748760723704,-0.347314355823594,0.));
#467=DIRECTION('',(0.,0.,1.));
#468=DIRECTION('',(0.347314355823594,-0.937748760723704,0.));
#469=DIRECTION('',(0.937748760723704,0.347314355823594,0.));
#470=DIRECTION('',(0.937748760723704,0.347314355823594,0.));
#471=DIRECTION('',(0.937748760723704,0.347314355823594,0.));
#472=DIRECTION('',(0.,0.,1.));
#473=DIRECTION('',(0.,-1.,0.));
#474=DIRECTION('',(0.,0.,-1.));
#475=DIRECTION('',(1.,0.,0.));
#476=DIRECTION('',(1.,0.,0.));
#477=DIRECTION('',(0.,0.,1.));
#478=DIRECTION('',(0.,0.,1.));
#479=DIRECTION('',(1.,0.,0.));
#480=DIRECTION('',(0.,0.,1.));
#481=DIRECTION('',(1.,0.,0.));
#482=DIRECTION('',(0.,0.,1.));
#483=DIRECTION('',(1.,0.,0.));
#484=DIRECTION('',(0.,0.,1.));
#485=DIRECTION('',(0.,0.,1.));
#486=DIRECTION('',(1.,0.,0.));
#487=DIRECTION('',(0.,0.,1.));
#488=DIRECTION('',(1.,0.,0.));
#489=DIRECTION('',(0.,0.,1.));
#490=DIRECTION('',(1.,0.,0.));
#491=DIRECTION('',(0.,0.,1.));
#492=DIRECTION('',(0.,0.,1.));
#493=DIRECTION('',(1.,0.,0.));
#494=DIRECTION('',(0.,0.,1.));
#495=DIRECTION('',(1.,0.,0.));
#496=DIRECTION('',(0.,0.,1.));
#497=DIRECTION('',(1.,0.,0.));
#498=DIRECTION('',(0.,0.,1.));
#499=DIRECTION('',(0.514986420831302,-0.857198335485648,0.));
#500=DIRECTION('',(0.857198335485648,0.514986420831302,0.));
#501=DIRECTION('',(0.857198335485648,0.514986420831302,0.));
#502=DIRECTION('',(0.857198335485648,0.514986420831302,0.));
#503=DIRECTION('',(0.,0.,1.));
#504=DIRECTION('',(0.,0.,1.));
#505=DIRECTION('',(1.,0.,0.));
#506=DIRECTION('',(0.,0.,1.));
#507=DIRECTION('',(1.,0.,0.));
#508=DIRECTION('',(0.,0.,1.));
#509=DIRECTION('',(1.,0.,0.));
#510=DIRECTION('',(0.,0.,1.));
#511=DIRECTION('',(1.,0.,0.));
#512=DIRECTION('',(0.,0.,-1.));
#513=DIRECTION('',(0.,1.,0.));
#514=DIRECTION('',(0.,1.,0.));
#515=DIRECTION('',(0.,0.,1.));
#516=DIRECTION('',(0.,1.,0.));
#517=DIRECTION('',(0.,0.,1.));
#518=DIRECTION('',(-1.,0.,0.));
#519=DIRECTION('',(-1.,0.,0.));
#520=DIRECTION('',(0.,0.,1.));
#521=DIRECTION('',(1.,0.,0.));
#522=DIRECTION('',(0.,0.,1.));
#523=DIRECTION('',(1.,0.,0.));
#524=CARTESIAN_POINT('',(0.,0.,0.));
#525=CARTESIAN_POINT('',(-4.625,0.,-50.));
#526=CARTESIAN_POINT('',(-4.625,0.,0.));
#527=CARTESIAN_POINT('',(-4.625,0.,0.));
#528=CARTESIAN_POINT('',(-4.625,-0.052,0.));
#529=CARTESIAN_POINT('',(-4.625,0.,-50.));
#530=CARTESIAN_POINT('',(-4.625,0.,-50.));
#531=CARTESIAN_POINT('',(-4.625,0.,-50.));
#532=CARTESIAN_POINT('',(-4.625,-0.052,-50.));
#533=CARTESIAN_POINT('',(-4.625,-0.052,-50.));
#534=CARTESIAN_POINT('',(-4.27500000000001,-0.0520000000000047,-50.));
#535=CARTESIAN_POINT('',(-4.27500000000001,-0.0520000000000047,0.));
#536=CARTESIAN_POINT('',(-4.45524524729095,-0.352019417419981,0.));
#537=CARTESIAN_POINT('',(-4.27500000000001,-0.0520000000000047,-50.));
#538=CARTESIAN_POINT('',(-4.45524524729095,-0.352019417419981,-50.));
#539=CARTESIAN_POINT('',(-4.45524524729095,-0.352019417419981,-50.));
#540=CARTESIAN_POINT('',(-4.45524524729095,-0.352019417419981,-50.));
#541=CARTESIAN_POINT('',(-4.45524524729095,-0.352019417419981,0.));
#542=CARTESIAN_POINT('',(-4.02699325055815,-0.609304054920262,0.));
#543=CARTESIAN_POINT('',(-4.45524524729095,-0.352019417419981,-50.));
#544=CARTESIAN_POINT('',(-4.02699325055815,-0.609304054920262,-50.));
#545=CARTESIAN_POINT('',(-4.02699325055815,-0.609304054920262,-50.));
#546=CARTESIAN_POINT('',(5.74999998348384,-2.70940007689162,-50.));
#547=CARTESIAN_POINT('',(5.74999998348384,-2.70940007689162,0.));
#548=CARTESIAN_POINT('',(-4.03716602186029,-4.76156517352466,0.));
#549=CARTESIAN_POINT('',(5.74999998348384,-2.70940007689162,-50.));
#550=CARTESIAN_POINT('',(-4.03716602186029,-4.76156517352466,-50.));
#551=CARTESIAN_POINT('',(-4.03716602186029,-4.76156517352466,-50.));
#552=CARTESIAN_POINT('',(-3.74355062993745,-4.69999958669884,-50.));
#553=CARTESIAN_POINT('',(-3.74355062993745,-4.69999958669884,0.));
#554=CARTESIAN_POINT('',(-3.44977696714925,-4.63919370781185,0.));
#555=CARTESIAN_POINT('',(-3.74355062993745,-4.69999958669884,-50.));
#556=CARTESIAN_POINT('',(-3.44977696714925,-4.63919370781185,-50.));
#557=CARTESIAN_POINT('',(-3.44977696714925,-4.63919370781185,-50.));
#558=CARTESIAN_POINT('',(5.75000000000002,-2.7094,-50.));
#559=CARTESIAN_POINT('',(5.75000000000002,-2.7094,0.));
#560=CARTESIAN_POINT('',(-3.49326520446103,-1.,0.));
#561=CARTESIAN_POINT('',(5.75000000000002,-2.7094,-50.));
#562=CARTESIAN_POINT('',(-3.49326520446103,-1.,-50.));
#563=CARTESIAN_POINT('',(-3.49326520446103,-1.,-50.));
#564=CARTESIAN_POINT('',(-3.49326520446103,-1.,-50.));
#565=CARTESIAN_POINT('',(-3.49326520446103,-1.,0.));
#566=CARTESIAN_POINT('',(-2.7,-1.,0.));
#567=CARTESIAN_POINT('',(-3.49326520446103,-1.,-50.));
#568=CARTESIAN_POINT('',(-2.7,-1.,-50.));
#569=CARTESIAN_POINT('',(-2.7,-1.,-50.));
#570=CARTESIAN_POINT('',(-2.7,-1.,-50.));
#571=CARTESIAN_POINT('',(-2.7,-1.,0.));
#572=CARTESIAN_POINT('',(0.,-2.,0.));
#573=CARTESIAN_POINT('',(-2.7,-1.,-50.));
#574=CARTESIAN_POINT('',(0.,-2.,-50.));
#575=CARTESIAN_POINT('',(0.,-2.,-50.));
#576=CARTESIAN_POINT('',(0.,-2.,-50.));
#577=CARTESIAN_POINT('',(0.,-2.,0.));
#578=CARTESIAN_POINT('',(2.7,-1.,0.));
#579=CARTESIAN_POINT('',(0.,-2.,-50.));
#580=CARTESIAN_POINT('',(2.7,-1.,-50.));
#581=CARTESIAN_POINT('',(2.7,-1.,-50.));
#582=CARTESIAN_POINT('',(2.7,-1.,-50.));
#583=CARTESIAN_POINT('',(2.7,-1.,0.));
#584=CARTESIAN_POINT('',(3.49326520446103,-1.,0.));
#585=CARTESIAN_POINT('',(2.7,-1.,-50.));
#586=CARTESIAN_POINT('',(3.49326520446103,-1.,-50.));
#587=CARTESIAN_POINT('',(3.49326520446103,-1.,-50.));
#588=CARTESIAN_POINT('',(-5.74999999999997,-2.70940000000001,-50.));
#589=CARTESIAN_POINT('',(-5.74999999999997,-2.70940000000001,0.));
#590=CARTESIAN_POINT('',(3.44977696714483,-4.63919370783295,0.));
#591=CARTESIAN_POINT('',(-5.74999999999997,-2.70940000000001,-50.));
#592=CARTESIAN_POINT('',(3.44977696714483,-4.63919370783295,-50.));
#593=CARTESIAN_POINT('',(3.44977696714483,-4.63919370783295,-50.));
#594=CARTESIAN_POINT('',(3.74355062993743,-4.69999958669881,-50.));
#595=CARTESIAN_POINT('',(3.74355062993743,-4.69999958669881,0.));
#596=CARTESIAN_POINT('',(4.0371660218603,-4.76156517352467,0.));
#597=CARTESIAN_POINT('',(3.74355062993743,-4.69999958669881,-50.));
#598=CARTESIAN_POINT('',(4.0371660218603,-4.76156517352467,-50.));
#599=CARTESIAN_POINT('',(4.0371660218603,-4.76156517352467,-50.));
#600=CARTESIAN_POINT('',(-5.74999998348386,-2.70940007689164,-50.));
#601=CARTESIAN_POINT('',(-5.74999998348386,-2.70940007689164,0.));
#602=CARTESIAN_POINT('',(4.02699325055815,-0.609304054920268,0.));
#603=CARTESIAN_POINT('',(-5.74999998348386,-2.70940007689164,-50.));
#604=CARTESIAN_POINT('',(4.02699325055815,-0.609304054920268,-50.));
#605=CARTESIAN_POINT('',(4.02699325055815,-0.609304054920268,-50.));
#606=CARTESIAN_POINT('',(4.02699325055815,-0.609304054920264,-50.));
#607=CARTESIAN_POINT('',(4.02699325055815,-0.609304054920264,0.));
#608=CARTESIAN_POINT('',(4.45524524729095,-0.352019417419966,0.));
#609=CARTESIAN_POINT('',(4.02699325055815,-0.609304054920264,-50.));
#610=CARTESIAN_POINT('',(4.45524524729095,-0.352019417419966,-50.));
#611=CARTESIAN_POINT('',(4.45524524729095,-0.352019417419966,-50.));
#612=CARTESIAN_POINT('',(4.275,-0.0519999999999883,-50.));
#613=CARTESIAN_POINT('',(4.275,-0.0519999999999883,0.));
#614=CARTESIAN_POINT('',(4.625,-0.0519999999999994,0.));
#615=CARTESIAN_POINT('',(4.275,-0.0519999999999883,-50.));
#616=CARTESIAN_POINT('',(4.625,-0.0519999999999994,-50.));
#617=CARTESIAN_POINT('',(4.625,-0.0519999999999994,-50.));
#618=CARTESIAN_POINT('',(4.625,-0.0519999999999992,-50.));
#619=CARTESIAN_POINT('',(4.625,-0.0519999999999992,0.));
#620=CARTESIAN_POINT('',(4.625,-6.7762635780344E-18,0.));
#621=CARTESIAN_POINT('',(4.625,-0.0519999999999992,-50.));
#622=CARTESIAN_POINT('',(4.625,-6.7762635780344E-18,-50.));
#623=CARTESIAN_POINT('',(4.625,-6.7762635780344E-18,-50.));
#624=CARTESIAN_POINT('',(4.625,0.,-50.));
#625=CARTESIAN_POINT('',(4.625,0.,0.));
#626=CARTESIAN_POINT('',(4.625,0.,-50.));
#627=CARTESIAN_POINT('',(-4.27500000000001,-0.0520000000000047,-50.));
#628=CARTESIAN_POINT('',(-4.27500000000001,-0.0520000000000047,0.));
#629=MECHANICAL_DESIGN_GEOMETRIC_PRESENTATION_REPRESENTATION('',(#370),
#630);
#630=(
GEOMETRIC_REPRESENTATION_CONTEXT(3)
GLOBAL_UNCERTAINTY_ASSIGNED_CONTEXT((#631))
GLOBAL_UNIT_ASSIGNED_CONTEXT((#634,#633,#632))
REPRESENTATION_CONTEXT('092071(high)','TOP_LEVEL_ASSEMBLY_PART')
);
#631=UNCERTAINTY_MEASURE_WITH_UNIT(LENGTH_MEASURE(0.005),#634,
'DISTANCE_ACCURACY_VALUE','Maximum Tolerance applied to model');
#632=(
NAMED_UNIT(*)
SI_UNIT($,.STERADIAN.)
SOLID_ANGLE_UNIT()
);
#633=(
NAMED_UNIT(*)
PLANE_ANGLE_UNIT()
SI_UNIT($,.RADIAN.)
);
#634=(
LENGTH_UNIT()
NAMED_UNIT(*)
SI_UNIT(.MILLI.,.METRE.)
);
#635=PRODUCT_DEFINITION_SHAPE('','',#636);
#636=PRODUCT_DEFINITION('','',#638,#637);
#637=PRODUCT_DEFINITION_CONTEXT('',#644,'design');
#638=PRODUCT_DEFINITION_FORMATION_WITH_SPECIFIED_SOURCE('','',#640,
 .NOT_KNOWN.);
#639=PRODUCT_RELATED_PRODUCT_CATEGORY('','',(#640));
#640=PRODUCT('092071(high)','092071(high)','092071(high)',(#642));
#641=PRODUCT_CATEGORY('','');
#642=PRODUCT_CONTEXT('',#644,'mechanical');
#643=APPLICATION_PROTOCOL_DEFINITION('international standard',
'automotive_design',2010,#644);
#644=APPLICATION_CONTEXT(
'core data for automotive mechanical design processes');
ENDSEC;
END-ISO-10303-21;
