ISO-10303-21;
HEADER;
/* Generated by software containing ST-Developer
 * from STEP Tools, Inc. (www.steptools.com) 
 */

FILE_DESCRIPTION(
/* description */ ('SLIDING BLOCK'),
/* implementation_level */ '2;1');

FILE_NAME(
/* name */ '3842547811.stp',
/* time_stamp */ '2026-03-17T09:37:24+01:00',
/* author */ ('andreas.svensson'),
/* organization */ (''),
/* preprocessor_version */ 'ST-DEVELOPER v20.1',
/* originating_system */ 'Autodesk Inventor 2026',
/* authorisation */ '');

FILE_SCHEMA (('AUTOMOTIVE_DESIGN { 1 0 10303 214 3 1 1 }'));
ENDSEC;

DATA;
#10=MECHANICAL_DESIGN_GEOMETRIC_PRESENTATION_REPRESENTATION('',(#13),#623);
#11=SHAPE_REPRESENTATION_RELATIONSHIP('SRR','None',#630,#12);
#12=ADVANCED_BREP_SHAPE_REPRESENTATION('',(#14),#622);
#13=STYLED_ITEM('',(#640),#14);
#14=MANIFOLD_SOLID_BREP('Solid1',#370);
#15=FACE_BOUND('',#69,.T.);
#16=PLANE('',#402);
#17=PLANE('',#403);
#18=PLANE('',#404);
#19=PLANE('',#405);
#20=PLANE('',#406);
#21=PLANE('',#407);
#22=PLANE('',#408);
#23=PLANE('',#409);
#24=PLANE('',#410);
#25=PLANE('',#411);
#26=PLANE('',#412);
#27=PLANE('',#413);
#28=PLANE('',#414);
#29=PLANE('',#415);
#30=PLANE('',#416);
#31=PLANE('',#417);
#32=PLANE('',#418);
#33=FACE_OUTER_BOUND('',#51,.T.);
#34=FACE_OUTER_BOUND('',#52,.T.);
#35=FACE_OUTER_BOUND('',#53,.T.);
#36=FACE_OUTER_BOUND('',#54,.T.);
#37=FACE_OUTER_BOUND('',#55,.T.);
#38=FACE_OUTER_BOUND('',#56,.T.);
#39=FACE_OUTER_BOUND('',#57,.T.);
#40=FACE_OUTER_BOUND('',#58,.T.);
#41=FACE_OUTER_BOUND('',#59,.T.);
#42=FACE_OUTER_BOUND('',#60,.T.);
#43=FACE_OUTER_BOUND('',#61,.T.);
#44=FACE_OUTER_BOUND('',#62,.T.);
#45=FACE_OUTER_BOUND('',#63,.T.);
#46=FACE_OUTER_BOUND('',#64,.T.);
#47=FACE_OUTER_BOUND('',#65,.T.);
#48=FACE_OUTER_BOUND('',#66,.T.);
#49=FACE_OUTER_BOUND('',#67,.T.);
#50=FACE_OUTER_BOUND('',#68,.T.);
#51=EDGE_LOOP('',(#249,#250,#251,#252,#253,#254,#255,#256,#257,#258));
#52=EDGE_LOOP('',(#259,#260,#261,#262));
#53=EDGE_LOOP('',(#263,#264,#265,#266));
#54=EDGE_LOOP('',(#267,#268,#269,#270));
#55=EDGE_LOOP('',(#271,#272,#273,#274));
#56=EDGE_LOOP('',(#275,#276,#277,#278));
#57=EDGE_LOOP('',(#279,#280,#281,#282));
#58=EDGE_LOOP('',(#283,#284,#285,#286));
#59=EDGE_LOOP('',(#287,#288,#289,#290));
#60=EDGE_LOOP('',(#291,#292,#293,#294));
#61=EDGE_LOOP('',(#295,#296,#297,#298));
#62=EDGE_LOOP('',(#299,#300,#301,#302,#303,#304));
#63=EDGE_LOOP('',(#305,#306,#307,#308,#309,#310,#311));
#64=EDGE_LOOP('',(#312,#313,#314,#315));
#65=EDGE_LOOP('',(#316,#317,#318,#319,#320,#321,#322,#323,#324,#325,#326,
#327,#328));
#66=EDGE_LOOP('',(#329,#330,#331,#332));
#67=EDGE_LOOP('',(#333,#334,#335,#336,#337,#338,#339,#340,#341,#342,#343,
#344,#345));
#68=EDGE_LOOP('',(#346,#347,#348,#349));
#69=EDGE_LOOP('',(#350));
#70=LINE('',#533,#113);
#71=LINE('',#537,#114);
#72=LINE('',#539,#115);
#73=LINE('',#540,#116);
#74=LINE('',#543,#117);
#75=LINE('',#545,#118);
#76=LINE('',#546,#119);
#77=LINE('',#549,#120);
#78=LINE('',#550,#121);
#79=LINE('',#553,#122);
#80=LINE('',#554,#123);
#81=LINE('',#558,#124);
#82=LINE('',#560,#125);
#83=LINE('',#562,#126);
#84=LINE('',#563,#127);
#85=LINE('',#566,#128);
#86=LINE('',#568,#129);
#87=LINE('',#569,#130);
#88=LINE('',#572,#131);
#89=LINE('',#574,#132);
#90=LINE('',#575,#133);
#91=LINE('',#579,#134);
#92=LINE('',#581,#135);
#93=LINE('',#583,#136);
#94=LINE('',#584,#137);
#95=LINE('',#587,#138);
#96=LINE('',#589,#139);
#97=LINE('',#590,#140);
#98=LINE('',#593,#141);
#99=LINE('',#595,#142);
#100=LINE('',#596,#143);
#101=LINE('',#598,#144);
#102=LINE('',#599,#145);
#103=LINE('',#601,#146);
#104=LINE('',#602,#147);
#105=LINE('',#606,#148);
#106=LINE('',#607,#149);
#107=LINE('',#608,#150);
#108=LINE('',#611,#151);
#109=LINE('',#612,#152);
#110=LINE('',#615,#153);
#111=LINE('',#616,#154);
#112=LINE('',#618,#155);
#113=VECTOR('',#437,4.);
#114=VECTOR('',#442,1.);
#115=VECTOR('',#443,1.);
#116=VECTOR('',#444,1.);
#117=VECTOR('',#447,1.);
#118=VECTOR('',#448,1.);
#119=VECTOR('',#449,1.);
#120=VECTOR('',#452,1.);
#121=VECTOR('',#453,1.);
#122=VECTOR('',#456,1.);
#123=VECTOR('',#457,1.);
#124=VECTOR('',#460,1.);
#125=VECTOR('',#461,1.);
#126=VECTOR('',#462,1.);
#127=VECTOR('',#463,1.);
#128=VECTOR('',#466,1.);
#129=VECTOR('',#467,1.);
#130=VECTOR('',#468,1.);
#131=VECTOR('',#471,1.);
#132=VECTOR('',#472,1.);
#133=VECTOR('',#473,1.);
#134=VECTOR('',#476,1.);
#135=VECTOR('',#477,1.);
#136=VECTOR('',#478,1.);
#137=VECTOR('',#479,1.);
#138=VECTOR('',#482,1.);
#139=VECTOR('',#483,1.);
#140=VECTOR('',#484,1.);
#141=VECTOR('',#487,1.);
#142=VECTOR('',#488,1.);
#143=VECTOR('',#489,1.);
#144=VECTOR('',#492,1.);
#145=VECTOR('',#493,1.);
#146=VECTOR('',#496,1.);
#147=VECTOR('',#497,1.);
#148=VECTOR('',#500,1.);
#149=VECTOR('',#501,1.);
#150=VECTOR('',#502,1.);
#151=VECTOR('',#505,1.);
#152=VECTOR('',#506,1.);
#153=VECTOR('',#509,1.);
#154=VECTOR('',#510,1.);
#155=VECTOR('',#513,1.);
#156=ELLIPSE('',#395,5.65685424949238,4.);
#157=ELLIPSE('',#396,5.65685424949238,4.);
#158=ELLIPSE('',#398,5.65685424949238,4.);
#159=ELLIPSE('',#399,5.65685424949238,4.);
#160=CIRCLE('',#394,4.);
#161=CIRCLE('',#397,4.);
#162=CIRCLE('',#400,4.);
#163=CIRCLE('',#401,4.);
#164=VERTEX_POINT('',#518);
#165=VERTEX_POINT('',#519);
#166=VERTEX_POINT('',#521);
#167=VERTEX_POINT('',#523);
#168=VERTEX_POINT('',#525);
#169=VERTEX_POINT('',#527);
#170=VERTEX_POINT('',#529);
#171=VERTEX_POINT('',#532);
#172=VERTEX_POINT('',#536);
#173=VERTEX_POINT('',#538);
#174=VERTEX_POINT('',#542);
#175=VERTEX_POINT('',#544);
#176=VERTEX_POINT('',#548);
#177=VERTEX_POINT('',#552);
#178=VERTEX_POINT('',#556);
#179=VERTEX_POINT('',#557);
#180=VERTEX_POINT('',#559);
#181=VERTEX_POINT('',#561);
#182=VERTEX_POINT('',#565);
#183=VERTEX_POINT('',#567);
#184=VERTEX_POINT('',#571);
#185=VERTEX_POINT('',#573);
#186=VERTEX_POINT('',#577);
#187=VERTEX_POINT('',#578);
#188=VERTEX_POINT('',#580);
#189=VERTEX_POINT('',#582);
#190=VERTEX_POINT('',#586);
#191=VERTEX_POINT('',#588);
#192=VERTEX_POINT('',#592);
#193=VERTEX_POINT('',#594);
#194=VERTEX_POINT('',#604);
#195=VERTEX_POINT('',#605);
#196=VERTEX_POINT('',#610);
#197=VERTEX_POINT('',#614);
#198=EDGE_CURVE('',#164,#165,#160,.T.);
#199=EDGE_CURVE('',#166,#164,#156,.T.);
#200=EDGE_CURVE('',#167,#166,#157,.T.);
#201=EDGE_CURVE('',#168,#167,#161,.T.);
#202=EDGE_CURVE('',#169,#168,#158,.T.);
#203=EDGE_CURVE('',#170,#169,#159,.T.);
#204=EDGE_CURVE('',#165,#170,#162,.T.);
#205=EDGE_CURVE('',#165,#171,#70,.T.);
#206=EDGE_CURVE('',#171,#171,#163,.T.);
#207=EDGE_CURVE('',#167,#172,#71,.F.);
#208=EDGE_CURVE('',#173,#166,#72,.T.);
#209=EDGE_CURVE('',#173,#172,#73,.F.);
#210=EDGE_CURVE('',#169,#174,#74,.T.);
#211=EDGE_CURVE('',#175,#168,#75,.F.);
#212=EDGE_CURVE('',#175,#174,#76,.T.);
#213=EDGE_CURVE('',#170,#176,#77,.F.);
#214=EDGE_CURVE('',#174,#176,#78,.T.);
#215=EDGE_CURVE('',#177,#164,#79,.F.);
#216=EDGE_CURVE('',#177,#173,#80,.F.);
#217=EDGE_CURVE('',#178,#179,#81,.F.);
#218=EDGE_CURVE('',#178,#180,#82,.F.);
#219=EDGE_CURVE('',#181,#180,#83,.T.);
#220=EDGE_CURVE('',#179,#181,#84,.F.);
#221=EDGE_CURVE('',#180,#182,#85,.F.);
#222=EDGE_CURVE('',#183,#182,#86,.F.);
#223=EDGE_CURVE('',#181,#183,#87,.F.);
#224=EDGE_CURVE('',#182,#184,#88,.F.);
#225=EDGE_CURVE('',#185,#184,#89,.F.);
#226=EDGE_CURVE('',#183,#185,#90,.F.);
#227=EDGE_CURVE('',#186,#187,#91,.F.);
#228=EDGE_CURVE('',#186,#188,#92,.F.);
#229=EDGE_CURVE('',#189,#188,#93,.F.);
#230=EDGE_CURVE('',#187,#189,#94,.F.);
#231=EDGE_CURVE('',#188,#190,#95,.F.);
#232=EDGE_CURVE('',#191,#190,#96,.T.);
#233=EDGE_CURVE('',#189,#191,#97,.F.);
#234=EDGE_CURVE('',#190,#192,#98,.F.);
#235=EDGE_CURVE('',#193,#192,#99,.F.);
#236=EDGE_CURVE('',#191,#193,#100,.F.);
#237=EDGE_CURVE('',#172,#178,#101,.F.);
#238=EDGE_CURVE('',#175,#179,#102,.F.);
#239=EDGE_CURVE('',#193,#176,#103,.F.);
#240=EDGE_CURVE('',#192,#177,#104,.F.);
#241=EDGE_CURVE('',#194,#195,#105,.F.);
#242=EDGE_CURVE('',#194,#186,#106,.F.);
#243=EDGE_CURVE('',#195,#187,#107,.F.);
#244=EDGE_CURVE('',#196,#185,#108,.F.);
#245=EDGE_CURVE('',#195,#196,#109,.F.);
#246=EDGE_CURVE('',#184,#197,#110,.F.);
#247=EDGE_CURVE('',#196,#197,#111,.F.);
#248=EDGE_CURVE('',#197,#194,#112,.T.);
#249=ORIENTED_EDGE('',*,*,#198,.F.);
#250=ORIENTED_EDGE('',*,*,#199,.F.);
#251=ORIENTED_EDGE('',*,*,#200,.F.);
#252=ORIENTED_EDGE('',*,*,#201,.F.);
#253=ORIENTED_EDGE('',*,*,#202,.F.);
#254=ORIENTED_EDGE('',*,*,#203,.F.);
#255=ORIENTED_EDGE('',*,*,#204,.F.);
#256=ORIENTED_EDGE('',*,*,#205,.T.);
#257=ORIENTED_EDGE('',*,*,#206,.F.);
#258=ORIENTED_EDGE('',*,*,#205,.F.);
#259=ORIENTED_EDGE('',*,*,#207,.F.);
#260=ORIENTED_EDGE('',*,*,#200,.T.);
#261=ORIENTED_EDGE('',*,*,#208,.F.);
#262=ORIENTED_EDGE('',*,*,#209,.T.);
#263=ORIENTED_EDGE('',*,*,#210,.F.);
#264=ORIENTED_EDGE('',*,*,#202,.T.);
#265=ORIENTED_EDGE('',*,*,#211,.F.);
#266=ORIENTED_EDGE('',*,*,#212,.T.);
#267=ORIENTED_EDGE('',*,*,#213,.F.);
#268=ORIENTED_EDGE('',*,*,#203,.T.);
#269=ORIENTED_EDGE('',*,*,#210,.T.);
#270=ORIENTED_EDGE('',*,*,#214,.T.);
#271=ORIENTED_EDGE('',*,*,#208,.T.);
#272=ORIENTED_EDGE('',*,*,#199,.T.);
#273=ORIENTED_EDGE('',*,*,#215,.F.);
#274=ORIENTED_EDGE('',*,*,#216,.T.);
#275=ORIENTED_EDGE('',*,*,#217,.F.);
#276=ORIENTED_EDGE('',*,*,#218,.T.);
#277=ORIENTED_EDGE('',*,*,#219,.F.);
#278=ORIENTED_EDGE('',*,*,#220,.F.);
#279=ORIENTED_EDGE('',*,*,#219,.T.);
#280=ORIENTED_EDGE('',*,*,#221,.T.);
#281=ORIENTED_EDGE('',*,*,#222,.F.);
#282=ORIENTED_EDGE('',*,*,#223,.F.);
#283=ORIENTED_EDGE('',*,*,#222,.T.);
#284=ORIENTED_EDGE('',*,*,#224,.T.);
#285=ORIENTED_EDGE('',*,*,#225,.F.);
#286=ORIENTED_EDGE('',*,*,#226,.F.);
#287=ORIENTED_EDGE('',*,*,#227,.F.);
#288=ORIENTED_EDGE('',*,*,#228,.T.);
#289=ORIENTED_EDGE('',*,*,#229,.F.);
#290=ORIENTED_EDGE('',*,*,#230,.F.);
#291=ORIENTED_EDGE('',*,*,#229,.T.);
#292=ORIENTED_EDGE('',*,*,#231,.T.);
#293=ORIENTED_EDGE('',*,*,#232,.F.);
#294=ORIENTED_EDGE('',*,*,#233,.F.);
#295=ORIENTED_EDGE('',*,*,#232,.T.);
#296=ORIENTED_EDGE('',*,*,#234,.T.);
#297=ORIENTED_EDGE('',*,*,#235,.F.);
#298=ORIENTED_EDGE('',*,*,#236,.F.);
#299=ORIENTED_EDGE('',*,*,#211,.T.);
#300=ORIENTED_EDGE('',*,*,#201,.T.);
#301=ORIENTED_EDGE('',*,*,#207,.T.);
#302=ORIENTED_EDGE('',*,*,#237,.T.);
#303=ORIENTED_EDGE('',*,*,#217,.T.);
#304=ORIENTED_EDGE('',*,*,#238,.F.);
#305=ORIENTED_EDGE('',*,*,#215,.T.);
#306=ORIENTED_EDGE('',*,*,#198,.T.);
#307=ORIENTED_EDGE('',*,*,#204,.T.);
#308=ORIENTED_EDGE('',*,*,#213,.T.);
#309=ORIENTED_EDGE('',*,*,#239,.F.);
#310=ORIENTED_EDGE('',*,*,#235,.T.);
#311=ORIENTED_EDGE('',*,*,#240,.T.);
#312=ORIENTED_EDGE('',*,*,#241,.F.);
#313=ORIENTED_EDGE('',*,*,#242,.T.);
#314=ORIENTED_EDGE('',*,*,#227,.T.);
#315=ORIENTED_EDGE('',*,*,#243,.F.);
#316=ORIENTED_EDGE('',*,*,#238,.T.);
#317=ORIENTED_EDGE('',*,*,#220,.T.);
#318=ORIENTED_EDGE('',*,*,#223,.T.);
#319=ORIENTED_EDGE('',*,*,#226,.T.);
#320=ORIENTED_EDGE('',*,*,#244,.F.);
#321=ORIENTED_EDGE('',*,*,#245,.F.);
#322=ORIENTED_EDGE('',*,*,#243,.T.);
#323=ORIENTED_EDGE('',*,*,#230,.T.);
#324=ORIENTED_EDGE('',*,*,#233,.T.);
#325=ORIENTED_EDGE('',*,*,#236,.T.);
#326=ORIENTED_EDGE('',*,*,#239,.T.);
#327=ORIENTED_EDGE('',*,*,#214,.F.);
#328=ORIENTED_EDGE('',*,*,#212,.F.);
#329=ORIENTED_EDGE('',*,*,#225,.T.);
#330=ORIENTED_EDGE('',*,*,#246,.T.);
#331=ORIENTED_EDGE('',*,*,#247,.F.);
#332=ORIENTED_EDGE('',*,*,#244,.T.);
#333=ORIENTED_EDGE('',*,*,#209,.F.);
#334=ORIENTED_EDGE('',*,*,#216,.F.);
#335=ORIENTED_EDGE('',*,*,#240,.F.);
#336=ORIENTED_EDGE('',*,*,#234,.F.);
#337=ORIENTED_EDGE('',*,*,#231,.F.);
#338=ORIENTED_EDGE('',*,*,#228,.F.);
#339=ORIENTED_EDGE('',*,*,#242,.F.);
#340=ORIENTED_EDGE('',*,*,#248,.F.);
#341=ORIENTED_EDGE('',*,*,#246,.F.);
#342=ORIENTED_EDGE('',*,*,#224,.F.);
#343=ORIENTED_EDGE('',*,*,#221,.F.);
#344=ORIENTED_EDGE('',*,*,#218,.F.);
#345=ORIENTED_EDGE('',*,*,#237,.F.);
#346=ORIENTED_EDGE('',*,*,#247,.T.);
#347=ORIENTED_EDGE('',*,*,#248,.T.);
#348=ORIENTED_EDGE('',*,*,#241,.T.);
#349=ORIENTED_EDGE('',*,*,#245,.T.);
#350=ORIENTED_EDGE('',*,*,#206,.T.);
#351=CYLINDRICAL_SURFACE('',#393,4.);
#352=ADVANCED_FACE('',(#33),#351,.F.);
#353=ADVANCED_FACE('',(#34),#16,.T.);
#354=ADVANCED_FACE('',(#35),#17,.T.);
#355=ADVANCED_FACE('',(#36),#18,.T.);
#356=ADVANCED_FACE('',(#37),#19,.T.);
#357=ADVANCED_FACE('',(#38),#20,.T.);
#358=ADVANCED_FACE('',(#39),#21,.T.);
#359=ADVANCED_FACE('',(#40),#22,.T.);
#360=ADVANCED_FACE('',(#41),#23,.T.);
#361=ADVANCED_FACE('',(#42),#24,.T.);
#362=ADVANCED_FACE('',(#43),#25,.T.);
#363=ADVANCED_FACE('',(#44),#26,.T.);
#364=ADVANCED_FACE('',(#45),#27,.T.);
#365=ADVANCED_FACE('',(#46),#28,.T.);
#366=ADVANCED_FACE('',(#47),#29,.T.);
#367=ADVANCED_FACE('',(#48),#30,.T.);
#368=ADVANCED_FACE('',(#49),#31,.F.);
#369=ADVANCED_FACE('',(#50,#15),#32,.T.);
#370=CLOSED_SHELL('',(#352,#353,#354,#355,#356,#357,#358,#359,#360,#361,
#362,#363,#364,#365,#366,#367,#368,#369));
#371=DERIVED_UNIT_ELEMENT(#374,1.);
#372=DERIVED_UNIT_ELEMENT(#625,-3.);
#373=DIMENSIONAL_EXPONENTS(0.,1.,0.,0.,0.,0.,0.);
#374=(
CONVERSION_BASED_UNIT('gram',#376)
MASS_UNIT()
NAMED_UNIT(#373)
);
#375=(
MASS_UNIT()
NAMED_UNIT(*)
SI_UNIT(.KILO.,.GRAM.)
);
#376=MASS_MEASURE_WITH_UNIT(MASS_MEASURE(0.001),#375);
#377=DERIVED_UNIT((#371,#372));
#378=MEASURE_REPRESENTATION_ITEM('density measure',
POSITIVE_RATIO_MEASURE(1.),#377);
#379=PROPERTY_DEFINITION_REPRESENTATION(#384,#381);
#380=PROPERTY_DEFINITION_REPRESENTATION(#385,#382);
#381=REPRESENTATION('material name',(#383),#622);
#382=REPRESENTATION('density',(#378),#622);
#383=DESCRIPTIVE_REPRESENTATION_ITEM('Generic','Generic');
#384=PROPERTY_DEFINITION('material property','material name',#632);
#385=PROPERTY_DEFINITION('material property','density of part',#632);
#386=DATE_TIME_ROLE('creation_date');
#387=APPLIED_DATE_AND_TIME_ASSIGNMENT(#388,#386,(#632));
#388=DATE_AND_TIME(#389,#390);
#389=CALENDAR_DATE(2026,9,3);
#390=LOCAL_TIME(9,16,23.,#391);
#391=COORDINATED_UNIVERSAL_TIME_OFFSET(0,0,.BEHIND.);
#392=AXIS2_PLACEMENT_3D('',#516,#419,#420);
#393=AXIS2_PLACEMENT_3D('',#517,#421,#422);
#394=AXIS2_PLACEMENT_3D('',#520,#423,#424);
#395=AXIS2_PLACEMENT_3D('',#522,#425,#426);
#396=AXIS2_PLACEMENT_3D('',#524,#427,#428);
#397=AXIS2_PLACEMENT_3D('',#526,#429,#430);
#398=AXIS2_PLACEMENT_3D('',#528,#431,#432);
#399=AXIS2_PLACEMENT_3D('',#530,#433,#434);
#400=AXIS2_PLACEMENT_3D('',#531,#435,#436);
#401=AXIS2_PLACEMENT_3D('',#534,#438,#439);
#402=AXIS2_PLACEMENT_3D('',#535,#440,#441);
#403=AXIS2_PLACEMENT_3D('',#541,#445,#446);
#404=AXIS2_PLACEMENT_3D('',#547,#450,#451);
#405=AXIS2_PLACEMENT_3D('',#551,#454,#455);
#406=AXIS2_PLACEMENT_3D('',#555,#458,#459);
#407=AXIS2_PLACEMENT_3D('',#564,#464,#465);
#408=AXIS2_PLACEMENT_3D('',#570,#469,#470);
#409=AXIS2_PLACEMENT_3D('',#576,#474,#475);
#410=AXIS2_PLACEMENT_3D('',#585,#480,#481);
#411=AXIS2_PLACEMENT_3D('',#591,#485,#486);
#412=AXIS2_PLACEMENT_3D('',#597,#490,#491);
#413=AXIS2_PLACEMENT_3D('',#600,#494,#495);
#414=AXIS2_PLACEMENT_3D('',#603,#498,#499);
#415=AXIS2_PLACEMENT_3D('',#609,#503,#504);
#416=AXIS2_PLACEMENT_3D('',#613,#507,#508);
#417=AXIS2_PLACEMENT_3D('',#617,#511,#512);
#418=AXIS2_PLACEMENT_3D('',#619,#514,#515);
#419=DIRECTION('axis',(0.,0.,1.));
#420=DIRECTION('refdir',(1.,0.,0.));
#421=DIRECTION('center_axis',(0.,-1.,0.));
#422=DIRECTION('ref_axis',(0.,0.,1.));
#423=DIRECTION('center_axis',(0.,-1.,0.));
#424=DIRECTION('ref_axis',(0.,0.,1.));
#425=DIRECTION('center_axis',(0.,-0.707106781186548,-0.707106781186548));
#426=DIRECTION('ref_axis',(0.,-0.707106781186547,0.707106781186547));
#427=DIRECTION('center_axis',(0.,-0.707106781186548,0.707106781186548));
#428=DIRECTION('ref_axis',(0.,0.707106781186547,0.707106781186547));
#429=DIRECTION('center_axis',(0.,-1.,0.));
#430=DIRECTION('ref_axis',(0.,0.,1.));
#431=DIRECTION('center_axis',(0.,-0.707106781186548,0.707106781186548));
#432=DIRECTION('ref_axis',(0.,0.707106781186547,0.707106781186547));
#433=DIRECTION('center_axis',(0.,-0.707106781186548,-0.707106781186548));
#434=DIRECTION('ref_axis',(0.,-0.707106781186547,0.707106781186547));
#435=DIRECTION('center_axis',(0.,-1.,0.));
#436=DIRECTION('ref_axis',(0.,0.,1.));
#437=DIRECTION('',(0.,-1.,0.));
#438=DIRECTION('center_axis',(0.,1.,0.));
#439=DIRECTION('ref_axis',(0.,0.,1.));
#440=DIRECTION('center_axis',(0.,0.707106781186548,-0.707106781186548));
#441=DIRECTION('ref_axis',(-1.,0.,0.));
#442=DIRECTION('',(1.,0.,0.));
#443=DIRECTION('',(1.,0.,0.));
#444=DIRECTION('',(0.,-0.707106781186547,-0.707106781186547));
#445=DIRECTION('center_axis',(0.,0.707106781186548,-0.707106781186548));
#446=DIRECTION('ref_axis',(-1.,0.,0.));
#447=DIRECTION('',(1.,0.,0.));
#448=DIRECTION('',(1.,0.,0.));
#449=DIRECTION('',(0.,-0.707106781186547,-0.707106781186547));
#450=DIRECTION('center_axis',(0.,0.707106781186548,0.707106781186548));
#451=DIRECTION('ref_axis',(1.,0.,0.));
#452=DIRECTION('',(-1.,0.,0.));
#453=DIRECTION('',(0.,0.707106781186547,-0.707106781186547));
#454=DIRECTION('center_axis',(0.,0.707106781186548,0.707106781186548));
#455=DIRECTION('ref_axis',(1.,0.,0.));
#456=DIRECTION('',(-1.,0.,0.));
#457=DIRECTION('',(0.,0.707106781186547,-0.707106781186547));
#458=DIRECTION('center_axis',(0.,0.,1.));
#459=DIRECTION('ref_axis',(1.,0.,0.));
#460=DIRECTION('',(-1.,0.,0.));
#461=DIRECTION('',(0.,1.,0.));
#462=DIRECTION('',(-1.,0.,0.));
#463=DIRECTION('',(0.,1.,0.));
#464=DIRECTION('center_axis',(0.,1.,0.));
#465=DIRECTION('ref_axis',(1.,0.,0.));
#466=DIRECTION('',(0.,0.,-1.));
#467=DIRECTION('',(1.,0.,0.));
#468=DIRECTION('',(0.,0.,-1.));
#469=DIRECTION('center_axis',(0.,0.,1.));
#470=DIRECTION('ref_axis',(1.,0.,0.));
#471=DIRECTION('',(0.,1.,0.));
#472=DIRECTION('',(1.,0.,0.));
#473=DIRECTION('',(0.,1.,0.));
#474=DIRECTION('center_axis',(0.,0.,-1.));
#475=DIRECTION('ref_axis',(0.,-1.,0.));
#476=DIRECTION('',(-1.,0.,0.));
#477=DIRECTION('',(0.,-1.,0.));
#478=DIRECTION('',(1.,0.,0.));
#479=DIRECTION('',(0.,-1.,0.));
#480=DIRECTION('center_axis',(0.,1.,0.));
#481=DIRECTION('ref_axis',(1.,0.,0.));
#482=DIRECTION('',(0.,0.,-1.));
#483=DIRECTION('',(-1.,0.,0.));
#484=DIRECTION('',(0.,0.,-1.));
#485=DIRECTION('center_axis',(0.,0.,-1.));
#486=DIRECTION('ref_axis',(0.,-1.,0.));
#487=DIRECTION('',(0.,-1.,0.));
#488=DIRECTION('',(1.,0.,0.));
#489=DIRECTION('',(0.,-1.,0.));
#490=DIRECTION('center_axis',(0.,1.,0.));
#491=DIRECTION('ref_axis',(1.,0.,0.));
#492=DIRECTION('',(0.,0.,-1.));
#493=DIRECTION('',(0.,0.,-1.));
#494=DIRECTION('center_axis',(0.,1.,0.));
#495=DIRECTION('ref_axis',(1.,0.,0.));
#496=DIRECTION('',(0.,0.,-1.));
#497=DIRECTION('',(0.,0.,-1.));
#498=DIRECTION('center_axis',(0.,-0.707106781186548,-0.707106781186548));
#499=DIRECTION('ref_axis',(0.,-0.707106781186548,0.707106781186548));
#500=DIRECTION('',(-1.,0.,0.));
#501=DIRECTION('',(0.,-0.707106781186547,0.707106781186547));
#502=DIRECTION('',(0.,-0.707106781186547,0.707106781186547));
#503=DIRECTION('center_axis',(1.,0.,0.));
#504=DIRECTION('ref_axis',(0.,1.,0.));
#505=DIRECTION('',(0.,-0.707106781186547,-0.707106781186547));
#506=DIRECTION('',(0.,0.,-1.));
#507=DIRECTION('center_axis',(0.,-0.707106781186548,0.707106781186548));
#508=DIRECTION('ref_axis',(-1.,0.,0.));
#509=DIRECTION('',(0.,0.707106781186547,0.707106781186547));
#510=DIRECTION('',(1.,0.,0.));
#511=DIRECTION('center_axis',(1.,0.,0.));
#512=DIRECTION('ref_axis',(0.,1.,0.));
#513=DIRECTION('',(0.,0.,-1.));
#514=DIRECTION('center_axis',(0.,-1.,0.));
#515=DIRECTION('ref_axis',(0.,0.,-1.));
#516=CARTESIAN_POINT('',(0.,0.,0.));
#517=CARTESIAN_POINT('Origin',(0.,0.,0.));
#518=CARTESIAN_POINT('',(-3.96735428213816,0.,-0.51));
#519=CARTESIAN_POINT('',(4.89858719658941E-16,0.,-4.));
#520=CARTESIAN_POINT('Origin',(0.,0.,0.));
#521=CARTESIAN_POINT('',(-4.,-0.51,2.44929359829471E-16));
#522=CARTESIAN_POINT('Origin',(0.,-0.51,0.));
#523=CARTESIAN_POINT('',(-3.96735428213816,0.,0.51));
#524=CARTESIAN_POINT('Origin',(0.,-0.51,0.));
#525=CARTESIAN_POINT('',(3.96735428213816,0.,0.51));
#526=CARTESIAN_POINT('Origin',(0.,0.,0.));
#527=CARTESIAN_POINT('',(4.,-0.51,2.44929359829471E-16));
#528=CARTESIAN_POINT('Origin',(0.,-0.51,0.));
#529=CARTESIAN_POINT('',(3.96735428213816,0.,-0.51));
#530=CARTESIAN_POINT('Origin',(0.,-0.51,0.));
#531=CARTESIAN_POINT('Origin',(0.,0.,0.));
#532=CARTESIAN_POINT('',(-4.89858719658941E-16,-10.6,-4.));
#533=CARTESIAN_POINT('',(4.89858719658941E-16,0.,-4.));
#534=CARTESIAN_POINT('Origin',(0.,-10.6,0.));
#535=CARTESIAN_POINT('Origin',(-10.,-0.51,0.));
#536=CARTESIAN_POINT('',(-10.,-5.55111512312578E-17,0.51));
#537=CARTESIAN_POINT('',(-10.,0.,0.51));
#538=CARTESIAN_POINT('',(-10.,-0.51,5.55111512312578E-17));
#539=CARTESIAN_POINT('',(-10.,-0.51,5.55111512312578E-17));
#540=CARTESIAN_POINT('',(-10.,-0.3825,0.1275));
#541=CARTESIAN_POINT('Origin',(-10.,-0.51,0.));
#542=CARTESIAN_POINT('',(10.,-0.51,5.55111512312578E-17));
#543=CARTESIAN_POINT('',(-10.,-0.51,5.55111512312578E-17));
#544=CARTESIAN_POINT('',(10.,-5.55111512312578E-17,0.51));
#545=CARTESIAN_POINT('',(-10.,0.,0.51));
#546=CARTESIAN_POINT('',(10.,-0.3825,0.1275));
#547=CARTESIAN_POINT('Origin',(-10.,0.,-0.51));
#548=CARTESIAN_POINT('',(10.,-3.88578058618805E-16,-0.51));
#549=CARTESIAN_POINT('',(-10.,0.,-0.509999999999999));
#550=CARTESIAN_POINT('',(10.,-0.1275,-0.3825));
#551=CARTESIAN_POINT('Origin',(-10.,0.,-0.51));
#552=CARTESIAN_POINT('',(-10.,-3.88578058618805E-16,-0.51));
#553=CARTESIAN_POINT('',(-10.,0.,-0.509999999999999));
#554=CARTESIAN_POINT('',(-10.,-0.1275,-0.3825));
#555=CARTESIAN_POINT('Origin',(-10.,0.,5.));
#556=CARTESIAN_POINT('',(-10.,0.,5.));
#557=CARTESIAN_POINT('',(10.,0.,5.));
#558=CARTESIAN_POINT('',(-10.,0.,5.));
#559=CARTESIAN_POINT('',(-10.,-5.1,5.));
#560=CARTESIAN_POINT('',(-10.,0.,5.));
#561=CARTESIAN_POINT('',(10.,-5.1,5.));
#562=CARTESIAN_POINT('',(-10.,-5.1,5.));
#563=CARTESIAN_POINT('',(10.,0.,5.));
#564=CARTESIAN_POINT('Origin',(-10.,-5.1,5.));
#565=CARTESIAN_POINT('',(-10.,-5.1,10.05));
#566=CARTESIAN_POINT('',(-10.,-5.1,2.5));
#567=CARTESIAN_POINT('',(10.,-5.1,10.05));
#568=CARTESIAN_POINT('',(-10.,-5.1,10.05));
#569=CARTESIAN_POINT('',(10.,-5.1,2.5));
#570=CARTESIAN_POINT('Origin',(-10.,-5.1,10.05));
#571=CARTESIAN_POINT('',(-10.,-7.65,10.05));
#572=CARTESIAN_POINT('',(-10.,-2.55,10.05));
#573=CARTESIAN_POINT('',(10.,-7.65,10.05));
#574=CARTESIAN_POINT('',(-10.,-7.65,10.05));
#575=CARTESIAN_POINT('',(10.,-2.55,10.05));
#576=CARTESIAN_POINT('Origin',(-10.,-7.65,-10.05));
#577=CARTESIAN_POINT('',(-10.,-7.65,-10.05));
#578=CARTESIAN_POINT('',(10.,-7.65,-10.05));
#579=CARTESIAN_POINT('',(-10.,-7.65,-10.05));
#580=CARTESIAN_POINT('',(-10.,-5.1,-10.05));
#581=CARTESIAN_POINT('',(-10.,-3.825,-10.05));
#582=CARTESIAN_POINT('',(10.,-5.1,-10.05));
#583=CARTESIAN_POINT('',(-10.,-5.1,-10.05));
#584=CARTESIAN_POINT('',(10.,-3.825,-10.05));
#585=CARTESIAN_POINT('Origin',(-10.,-5.1,-10.05));
#586=CARTESIAN_POINT('',(-10.,-5.1,-5.));
#587=CARTESIAN_POINT('',(-10.,-5.1,-5.025));
#588=CARTESIAN_POINT('',(10.,-5.1,-5.));
#589=CARTESIAN_POINT('',(-10.,-5.1,-5.));
#590=CARTESIAN_POINT('',(10.,-5.1,-5.025));
#591=CARTESIAN_POINT('Origin',(-10.,-5.1,-5.));
#592=CARTESIAN_POINT('',(-10.,0.,-5.));
#593=CARTESIAN_POINT('',(-10.,-2.55,-5.));
#594=CARTESIAN_POINT('',(10.,0.,-5.));
#595=CARTESIAN_POINT('',(-10.,0.,-5.));
#596=CARTESIAN_POINT('',(10.,-2.55,-5.));
#597=CARTESIAN_POINT('Origin',(-10.,0.,0.51));
#598=CARTESIAN_POINT('',(-10.,0.,0.255));
#599=CARTESIAN_POINT('',(10.,0.,0.255));
#600=CARTESIAN_POINT('Origin',(-10.,0.,-5.));
#601=CARTESIAN_POINT('',(10.,0.,-2.5));
#602=CARTESIAN_POINT('',(-10.,0.,-2.5));
#603=CARTESIAN_POINT('Origin',(-10.,-10.6,-7.1));
#604=CARTESIAN_POINT('',(-10.,-10.6,-7.1));
#605=CARTESIAN_POINT('',(10.,-10.6,-7.1));
#606=CARTESIAN_POINT('',(-10.,-10.6,-7.1));
#607=CARTESIAN_POINT('',(-10.,-9.725,-7.975));
#608=CARTESIAN_POINT('',(10.,-9.725,-7.975));
#609=CARTESIAN_POINT('Origin',(10.,0.,0.));
#610=CARTESIAN_POINT('',(10.,-10.6,7.1));
#611=CARTESIAN_POINT('',(10.,-8.25,9.45));
#612=CARTESIAN_POINT('',(10.,-10.6,3.55));
#613=CARTESIAN_POINT('Origin',(-10.,-7.65,10.05));
#614=CARTESIAN_POINT('',(-10.,-10.6,7.10000000000001));
#615=CARTESIAN_POINT('',(-10.,-8.25,9.45));
#616=CARTESIAN_POINT('',(-10.,-10.6,7.10000000000001));
#617=CARTESIAN_POINT('Origin',(-10.,0.,0.));
#618=CARTESIAN_POINT('',(-10.,-10.6,3.55));
#619=CARTESIAN_POINT('Origin',(-10.,-10.6,7.1));
#620=UNCERTAINTY_MEASURE_WITH_UNIT(LENGTH_MEASURE(0.01),#624,
'DISTANCE_ACCURACY_VALUE',
'Maximum model space distance between geometric entities at asserted c
onnectivities');
#621=UNCERTAINTY_MEASURE_WITH_UNIT(LENGTH_MEASURE(0.01),#624,
'DISTANCE_ACCURACY_VALUE',
'Maximum model space distance between geometric entities at asserted c
onnectivities');
#622=(
GEOMETRIC_REPRESENTATION_CONTEXT(3)
GLOBAL_UNCERTAINTY_ASSIGNED_CONTEXT((#620))
GLOBAL_UNIT_ASSIGNED_CONTEXT((#624,#626,#627))
REPRESENTATION_CONTEXT('','3D')
);
#623=(
GEOMETRIC_REPRESENTATION_CONTEXT(3)
GLOBAL_UNCERTAINTY_ASSIGNED_CONTEXT((#621))
GLOBAL_UNIT_ASSIGNED_CONTEXT((#624,#626,#627))
REPRESENTATION_CONTEXT('','3D')
);
#624=(
LENGTH_UNIT()
NAMED_UNIT(*)
SI_UNIT(.MILLI.,.METRE.)
);
#625=(
LENGTH_UNIT()
NAMED_UNIT(*)
SI_UNIT(.CENTI.,.METRE.)
);
#626=(
NAMED_UNIT(*)
PLANE_ANGLE_UNIT()
SI_UNIT($,.RADIAN.)
);
#627=(
NAMED_UNIT(*)
SI_UNIT($,.STERADIAN.)
SOLID_ANGLE_UNIT()
);
#628=SHAPE_DEFINITION_REPRESENTATION(#629,#630);
#629=PRODUCT_DEFINITION_SHAPE('',$,#632);
#630=SHAPE_REPRESENTATION('',(#392),#622);
#631=PRODUCT_DEFINITION_CONTEXT('part definition',#636,'design');
#632=PRODUCT_DEFINITION('3842547811','3842547811',#633,#631);
#633=PRODUCT_DEFINITION_FORMATION('',$,#638);
#634=PRODUCT_RELATED_PRODUCT_CATEGORY('3842547811','3842547811',(#638));
#635=APPLICATION_PROTOCOL_DEFINITION('international standard',
'automotive_design',2009,#636);
#636=APPLICATION_CONTEXT(
'Core Data for Automotive Mechanical Design Process');
#637=PRODUCT_CONTEXT('part definition',#636,'mechanical');
#638=PRODUCT('3842547811','3842547811','SLIDING BLOCK',(#637));
#639=PRESENTATION_STYLE_ASSIGNMENT((#641));
#640=PRESENTATION_STYLE_ASSIGNMENT((#642));
#641=SURFACE_STYLE_USAGE(.BOTH.,#647);
#642=SURFACE_STYLE_USAGE(.BOTH.,#648);
#643=SURFACE_STYLE_RENDERING_WITH_PROPERTIES($,#655,(#645));
#644=SURFACE_STYLE_RENDERING_WITH_PROPERTIES($,#656,(#646));
#645=SURFACE_STYLE_TRANSPARENT(0.);
#646=SURFACE_STYLE_TRANSPARENT(0.);
#647=SURFACE_SIDE_STYLE('',(#649,#643));
#648=SURFACE_SIDE_STYLE('',(#650,#644));
#649=SURFACE_STYLE_FILL_AREA(#651);
#650=SURFACE_STYLE_FILL_AREA(#652);
#651=FILL_AREA_STYLE('',(#653));
#652=FILL_AREA_STYLE('',(#654));
#653=FILL_AREA_STYLE_COLOUR('',#655);
#654=FILL_AREA_STYLE_COLOUR('',#656);
#655=COLOUR_RGB('',0.749019607843137,0.749019607843137,0.749019607843137);
#656=COLOUR_RGB('',0.752941176470588,0.752941176470588,0.752941176470588);
ENDSEC;
END-ISO-10303-21;
