ISO-10303-21;
HEADER;
/* Generated by software containing ST-Developer
 * from STEP Tools, Inc. (www.steptools.com) 
 */

FILE_DESCRIPTION(
/* description */ ('RETAINING RING'),
/* implementation_level */ '2;1');

FILE_NAME(
/* name */ '3842542330.stp',
/* time_stamp */ '2026-03-17T09:38:11+01:00',
/* author */ ('andreas.svensson'),
/* organization */ (''),
/* preprocessor_version */ 'ST-DEVELOPER v20.1',
/* originating_system */ 'Autodesk Inventor 2026',
/* authorisation */ '');

FILE_SCHEMA (('AUTOMOTIVE_DESIGN { 1 0 10303 214 3 1 1 }'));
ENDSEC;

DATA;
#10=MECHANICAL_DESIGN_GEOMETRIC_PRESENTATION_REPRESENTATION('',(#13),#678);
#11=SHAPE_REPRESENTATION_RELATIONSHIP('SRR','None',#685,#12);
#12=ADVANCED_BREP_SHAPE_REPRESENTATION('',(#14),#677);
#13=STYLED_ITEM('',(#694),#14);
#14=MANIFOLD_SOLID_BREP('Solid1',#385);
#15=FACE_BOUND('',#54,.T.);
#16=FACE_BOUND('',#56,.T.);
#17=PLANE('',#422);
#18=PLANE('',#427);
#19=PLANE('',#428);
#20=PLANE('',#430);
#21=PLANE('',#432);
#22=PLANE('',#434);
#23=PLANE('',#436);
#24=PLANE('',#438);
#25=PLANE('',#439);
#26=PLANE('',#441);
#27=PLANE('',#442);
#28=PLANE('',#444);
#29=PLANE('',#445);
#30=PLANE('',#447);
#31=FACE_OUTER_BOUND('',#51,.T.);
#32=FACE_OUTER_BOUND('',#52,.T.);
#33=FACE_OUTER_BOUND('',#53,.T.);
#34=FACE_OUTER_BOUND('',#55,.T.);
#35=FACE_OUTER_BOUND('',#57,.T.);
#36=FACE_OUTER_BOUND('',#58,.T.);
#37=FACE_OUTER_BOUND('',#59,.T.);
#38=FACE_OUTER_BOUND('',#60,.T.);
#39=FACE_OUTER_BOUND('',#61,.T.);
#40=FACE_OUTER_BOUND('',#62,.T.);
#41=FACE_OUTER_BOUND('',#63,.T.);
#42=FACE_OUTER_BOUND('',#64,.T.);
#43=FACE_OUTER_BOUND('',#65,.T.);
#44=FACE_OUTER_BOUND('',#66,.T.);
#45=FACE_OUTER_BOUND('',#67,.T.);
#46=FACE_OUTER_BOUND('',#68,.T.);
#47=FACE_OUTER_BOUND('',#69,.T.);
#48=FACE_OUTER_BOUND('',#70,.T.);
#49=FACE_OUTER_BOUND('',#71,.T.);
#50=FACE_OUTER_BOUND('',#72,.T.);
#51=EDGE_LOOP('',(#251,#252,#253,#254,#255,#256,#257,#258,#259,#260,#261,
#262,#263,#264,#265,#266,#267,#268,#269,#270));
#52=EDGE_LOOP('',(#271,#272,#273,#274));
#53=EDGE_LOOP('',(#275));
#54=EDGE_LOOP('',(#276,#277,#278,#279,#280,#281,#282,#283,#284,#285,#286,
#287,#288,#289,#290,#291,#292));
#55=EDGE_LOOP('',(#293));
#56=EDGE_LOOP('',(#294));
#57=EDGE_LOOP('',(#295,#296,#297,#298));
#58=EDGE_LOOP('',(#299,#300,#301,#302));
#59=EDGE_LOOP('',(#303,#304,#305,#306));
#60=EDGE_LOOP('',(#307,#308,#309,#310));
#61=EDGE_LOOP('',(#311,#312,#313,#314));
#62=EDGE_LOOP('',(#315,#316,#317,#318));
#63=EDGE_LOOP('',(#319,#320,#321,#322));
#64=EDGE_LOOP('',(#323,#324,#325,#326));
#65=EDGE_LOOP('',(#327,#328,#329,#330));
#66=EDGE_LOOP('',(#331,#332,#333,#334));
#67=EDGE_LOOP('',(#335,#336,#337,#338));
#68=EDGE_LOOP('',(#339,#340,#341,#342));
#69=EDGE_LOOP('',(#343,#344,#345,#346));
#70=EDGE_LOOP('',(#347,#348,#349,#350));
#71=EDGE_LOOP('',(#351,#352,#353,#354));
#72=EDGE_LOOP('',(#355,#356,#357,#358));
#73=LINE('',#569,#107);
#74=LINE('',#573,#108);
#75=LINE('',#577,#109);
#76=LINE('',#581,#110);
#77=LINE('',#585,#111);
#78=LINE('',#589,#112);
#79=LINE('',#593,#113);
#80=LINE('',#597,#114);
#81=LINE('',#601,#115);
#82=LINE('',#607,#116);
#83=LINE('',#611,#117);
#84=LINE('',#614,#118);
#85=LINE('',#616,#119);
#86=LINE('',#619,#120);
#87=LINE('',#621,#121);
#88=LINE('',#624,#122);
#89=LINE('',#626,#123);
#90=LINE('',#629,#124);
#91=LINE('',#633,#125);
#92=LINE('',#636,#126);
#93=LINE('',#639,#127);
#94=LINE('',#642,#128);
#95=LINE('',#645,#129);
#96=LINE('',#648,#130);
#97=LINE('',#651,#131);
#98=LINE('',#654,#132);
#99=LINE('',#656,#133);
#100=LINE('',#658,#134);
#101=LINE('',#661,#135);
#102=LINE('',#663,#136);
#103=LINE('',#666,#137);
#104=LINE('',#668,#138);
#105=LINE('',#671,#139);
#106=LINE('',#673,#140);
#107=VECTOR('',#454,4.5);
#108=VECTOR('',#457,0.3);
#109=VECTOR('',#460,0.3);
#110=VECTOR('',#463,0.3);
#111=VECTOR('',#466,0.3);
#112=VECTOR('',#469,0.3);
#113=VECTOR('',#472,0.3);
#114=VECTOR('',#475,0.3);
#115=VECTOR('',#478,0.3);
#116=VECTOR('',#485,6.25);
#117=VECTOR('',#490,1.76143339412);
#118=VECTOR('',#493,1.76143339412);
#119=VECTOR('',#494,1.76143339412);
#120=VECTOR('',#497,1.76143339412);
#121=VECTOR('',#498,1.76143339412);
#122=VECTOR('',#501,1.76143339412);
#123=VECTOR('',#502,1.76143339412);
#124=VECTOR('',#505,1.76143339412);
#125=VECTOR('',#510,1.76143339412);
#126=VECTOR('',#513,1.76143339412);
#127=VECTOR('',#516,1.76143339412);
#128=VECTOR('',#519,1.76143339412);
#129=VECTOR('',#522,1.76143339412);
#130=VECTOR('',#525,1.76143339412);
#131=VECTOR('',#528,1.76143339412);
#132=VECTOR('',#531,1.76143339412);
#133=VECTOR('',#534,0.3);
#134=VECTOR('',#537,0.3);
#135=VECTOR('',#542,0.3);
#136=VECTOR('',#545,0.3);
#137=VECTOR('',#550,0.3);
#138=VECTOR('',#553,0.3);
#139=VECTOR('',#558,0.3);
#140=VECTOR('',#561,0.3);
#141=CIRCLE('',#409,4.5);
#142=CIRCLE('',#410,4.5);
#143=CIRCLE('',#411,4.5);
#144=CIRCLE('',#412,4.5);
#145=CIRCLE('',#413,4.5);
#146=CIRCLE('',#414,4.5);
#147=CIRCLE('',#415,4.5);
#148=CIRCLE('',#416,4.5);
#149=CIRCLE('',#417,4.5);
#150=CIRCLE('',#418,4.5);
#151=CIRCLE('',#420,6.25);
#152=CIRCLE('',#421,6.25);
#153=CIRCLE('',#423,2.75);
#154=CIRCLE('',#424,2.75);
#155=CIRCLE('',#425,2.75);
#156=CIRCLE('',#426,2.75);
#157=CIRCLE('',#429,2.75);
#158=CIRCLE('',#431,2.75);
#159=CIRCLE('',#433,2.75);
#160=CIRCLE('',#435,2.75);
#161=VERTEX_POINT('',#566);
#162=VERTEX_POINT('',#568);
#163=VERTEX_POINT('',#570);
#164=VERTEX_POINT('',#572);
#165=VERTEX_POINT('',#574);
#166=VERTEX_POINT('',#576);
#167=VERTEX_POINT('',#578);
#168=VERTEX_POINT('',#580);
#169=VERTEX_POINT('',#582);
#170=VERTEX_POINT('',#584);
#171=VERTEX_POINT('',#586);
#172=VERTEX_POINT('',#588);
#173=VERTEX_POINT('',#590);
#174=VERTEX_POINT('',#592);
#175=VERTEX_POINT('',#594);
#176=VERTEX_POINT('',#596);
#177=VERTEX_POINT('',#598);
#178=VERTEX_POINT('',#600);
#179=VERTEX_POINT('',#604);
#180=VERTEX_POINT('',#606);
#181=VERTEX_POINT('',#610);
#182=VERTEX_POINT('',#612);
#183=VERTEX_POINT('',#615);
#184=VERTEX_POINT('',#617);
#185=VERTEX_POINT('',#620);
#186=VERTEX_POINT('',#622);
#187=VERTEX_POINT('',#625);
#188=VERTEX_POINT('',#627);
#189=VERTEX_POINT('',#632);
#190=VERTEX_POINT('',#634);
#191=VERTEX_POINT('',#638);
#192=VERTEX_POINT('',#640);
#193=VERTEX_POINT('',#644);
#194=VERTEX_POINT('',#646);
#195=VERTEX_POINT('',#650);
#196=VERTEX_POINT('',#652);
#197=EDGE_CURVE('',#161,#161,#141,.T.);
#198=EDGE_CURVE('',#161,#162,#73,.T.);
#199=EDGE_CURVE('',#162,#163,#142,.T.);
#200=EDGE_CURVE('',#163,#164,#74,.T.);
#201=EDGE_CURVE('',#165,#164,#143,.T.);
#202=EDGE_CURVE('',#166,#165,#75,.T.);
#203=EDGE_CURVE('',#166,#167,#144,.T.);
#204=EDGE_CURVE('',#167,#168,#76,.T.);
#205=EDGE_CURVE('',#169,#168,#145,.T.);
#206=EDGE_CURVE('',#170,#169,#77,.T.);
#207=EDGE_CURVE('',#170,#171,#146,.T.);
#208=EDGE_CURVE('',#171,#172,#78,.T.);
#209=EDGE_CURVE('',#173,#172,#147,.T.);
#210=EDGE_CURVE('',#174,#173,#79,.T.);
#211=EDGE_CURVE('',#174,#175,#148,.T.);
#212=EDGE_CURVE('',#175,#176,#80,.T.);
#213=EDGE_CURVE('',#177,#176,#149,.T.);
#214=EDGE_CURVE('',#178,#177,#81,.T.);
#215=EDGE_CURVE('',#178,#162,#150,.T.);
#216=EDGE_CURVE('',#179,#179,#151,.T.);
#217=EDGE_CURVE('',#179,#180,#82,.T.);
#218=EDGE_CURVE('',#180,#180,#152,.T.);
#219=EDGE_CURVE('',#181,#170,#83,.T.);
#220=EDGE_CURVE('',#182,#181,#153,.T.);
#221=EDGE_CURVE('',#167,#182,#84,.T.);
#222=EDGE_CURVE('',#183,#166,#85,.T.);
#223=EDGE_CURVE('',#184,#183,#154,.T.);
#224=EDGE_CURVE('',#163,#184,#86,.T.);
#225=EDGE_CURVE('',#185,#178,#87,.T.);
#226=EDGE_CURVE('',#186,#185,#155,.T.);
#227=EDGE_CURVE('',#175,#186,#88,.T.);
#228=EDGE_CURVE('',#187,#174,#89,.T.);
#229=EDGE_CURVE('',#188,#187,#156,.T.);
#230=EDGE_CURVE('',#171,#188,#90,.T.);
#231=EDGE_CURVE('',#176,#189,#91,.T.);
#232=EDGE_CURVE('',#189,#190,#157,.T.);
#233=EDGE_CURVE('',#190,#177,#92,.T.);
#234=EDGE_CURVE('',#168,#191,#93,.T.);
#235=EDGE_CURVE('',#191,#192,#158,.T.);
#236=EDGE_CURVE('',#192,#169,#94,.T.);
#237=EDGE_CURVE('',#172,#193,#95,.T.);
#238=EDGE_CURVE('',#193,#194,#159,.T.);
#239=EDGE_CURVE('',#194,#173,#96,.T.);
#240=EDGE_CURVE('',#164,#195,#97,.T.);
#241=EDGE_CURVE('',#195,#196,#160,.T.);
#242=EDGE_CURVE('',#196,#165,#98,.T.);
#243=EDGE_CURVE('',#185,#190,#99,.T.);
#244=EDGE_CURVE('',#186,#189,#100,.T.);
#245=EDGE_CURVE('',#182,#191,#101,.T.);
#246=EDGE_CURVE('',#181,#192,#102,.T.);
#247=EDGE_CURVE('',#183,#196,#103,.T.);
#248=EDGE_CURVE('',#184,#195,#104,.T.);
#249=EDGE_CURVE('',#187,#194,#105,.T.);
#250=EDGE_CURVE('',#188,#193,#106,.T.);
#251=ORIENTED_EDGE('',*,*,#197,.F.);
#252=ORIENTED_EDGE('',*,*,#198,.T.);
#253=ORIENTED_EDGE('',*,*,#199,.T.);
#254=ORIENTED_EDGE('',*,*,#200,.T.);
#255=ORIENTED_EDGE('',*,*,#201,.F.);
#256=ORIENTED_EDGE('',*,*,#202,.F.);
#257=ORIENTED_EDGE('',*,*,#203,.T.);
#258=ORIENTED_EDGE('',*,*,#204,.T.);
#259=ORIENTED_EDGE('',*,*,#205,.F.);
#260=ORIENTED_EDGE('',*,*,#206,.F.);
#261=ORIENTED_EDGE('',*,*,#207,.T.);
#262=ORIENTED_EDGE('',*,*,#208,.T.);
#263=ORIENTED_EDGE('',*,*,#209,.F.);
#264=ORIENTED_EDGE('',*,*,#210,.F.);
#265=ORIENTED_EDGE('',*,*,#211,.T.);
#266=ORIENTED_EDGE('',*,*,#212,.T.);
#267=ORIENTED_EDGE('',*,*,#213,.F.);
#268=ORIENTED_EDGE('',*,*,#214,.F.);
#269=ORIENTED_EDGE('',*,*,#215,.T.);
#270=ORIENTED_EDGE('',*,*,#198,.F.);
#271=ORIENTED_EDGE('',*,*,#216,.T.);
#272=ORIENTED_EDGE('',*,*,#217,.T.);
#273=ORIENTED_EDGE('',*,*,#218,.F.);
#274=ORIENTED_EDGE('',*,*,#217,.F.);
#275=ORIENTED_EDGE('',*,*,#216,.F.);
#276=ORIENTED_EDGE('',*,*,#207,.F.);
#277=ORIENTED_EDGE('',*,*,#219,.F.);
#278=ORIENTED_EDGE('',*,*,#220,.F.);
#279=ORIENTED_EDGE('',*,*,#221,.F.);
#280=ORIENTED_EDGE('',*,*,#203,.F.);
#281=ORIENTED_EDGE('',*,*,#222,.F.);
#282=ORIENTED_EDGE('',*,*,#223,.F.);
#283=ORIENTED_EDGE('',*,*,#224,.F.);
#284=ORIENTED_EDGE('',*,*,#199,.F.);
#285=ORIENTED_EDGE('',*,*,#215,.F.);
#286=ORIENTED_EDGE('',*,*,#225,.F.);
#287=ORIENTED_EDGE('',*,*,#226,.F.);
#288=ORIENTED_EDGE('',*,*,#227,.F.);
#289=ORIENTED_EDGE('',*,*,#211,.F.);
#290=ORIENTED_EDGE('',*,*,#228,.F.);
#291=ORIENTED_EDGE('',*,*,#229,.F.);
#292=ORIENTED_EDGE('',*,*,#230,.F.);
#293=ORIENTED_EDGE('',*,*,#218,.T.);
#294=ORIENTED_EDGE('',*,*,#197,.T.);
#295=ORIENTED_EDGE('',*,*,#213,.T.);
#296=ORIENTED_EDGE('',*,*,#231,.T.);
#297=ORIENTED_EDGE('',*,*,#232,.T.);
#298=ORIENTED_EDGE('',*,*,#233,.T.);
#299=ORIENTED_EDGE('',*,*,#205,.T.);
#300=ORIENTED_EDGE('',*,*,#234,.T.);
#301=ORIENTED_EDGE('',*,*,#235,.T.);
#302=ORIENTED_EDGE('',*,*,#236,.T.);
#303=ORIENTED_EDGE('',*,*,#209,.T.);
#304=ORIENTED_EDGE('',*,*,#237,.T.);
#305=ORIENTED_EDGE('',*,*,#238,.T.);
#306=ORIENTED_EDGE('',*,*,#239,.T.);
#307=ORIENTED_EDGE('',*,*,#201,.T.);
#308=ORIENTED_EDGE('',*,*,#240,.T.);
#309=ORIENTED_EDGE('',*,*,#241,.T.);
#310=ORIENTED_EDGE('',*,*,#242,.T.);
#311=ORIENTED_EDGE('',*,*,#214,.T.);
#312=ORIENTED_EDGE('',*,*,#233,.F.);
#313=ORIENTED_EDGE('',*,*,#243,.F.);
#314=ORIENTED_EDGE('',*,*,#225,.T.);
#315=ORIENTED_EDGE('',*,*,#226,.T.);
#316=ORIENTED_EDGE('',*,*,#243,.T.);
#317=ORIENTED_EDGE('',*,*,#232,.F.);
#318=ORIENTED_EDGE('',*,*,#244,.F.);
#319=ORIENTED_EDGE('',*,*,#212,.F.);
#320=ORIENTED_EDGE('',*,*,#227,.T.);
#321=ORIENTED_EDGE('',*,*,#244,.T.);
#322=ORIENTED_EDGE('',*,*,#231,.F.);
#323=ORIENTED_EDGE('',*,*,#204,.F.);
#324=ORIENTED_EDGE('',*,*,#221,.T.);
#325=ORIENTED_EDGE('',*,*,#245,.T.);
#326=ORIENTED_EDGE('',*,*,#234,.F.);
#327=ORIENTED_EDGE('',*,*,#220,.T.);
#328=ORIENTED_EDGE('',*,*,#246,.T.);
#329=ORIENTED_EDGE('',*,*,#235,.F.);
#330=ORIENTED_EDGE('',*,*,#245,.F.);
#331=ORIENTED_EDGE('',*,*,#206,.T.);
#332=ORIENTED_EDGE('',*,*,#236,.F.);
#333=ORIENTED_EDGE('',*,*,#246,.F.);
#334=ORIENTED_EDGE('',*,*,#219,.T.);
#335=ORIENTED_EDGE('',*,*,#202,.T.);
#336=ORIENTED_EDGE('',*,*,#242,.F.);
#337=ORIENTED_EDGE('',*,*,#247,.F.);
#338=ORIENTED_EDGE('',*,*,#222,.T.);
#339=ORIENTED_EDGE('',*,*,#223,.T.);
#340=ORIENTED_EDGE('',*,*,#247,.T.);
#341=ORIENTED_EDGE('',*,*,#241,.F.);
#342=ORIENTED_EDGE('',*,*,#248,.F.);
#343=ORIENTED_EDGE('',*,*,#200,.F.);
#344=ORIENTED_EDGE('',*,*,#224,.T.);
#345=ORIENTED_EDGE('',*,*,#248,.T.);
#346=ORIENTED_EDGE('',*,*,#240,.F.);
#347=ORIENTED_EDGE('',*,*,#210,.T.);
#348=ORIENTED_EDGE('',*,*,#239,.F.);
#349=ORIENTED_EDGE('',*,*,#249,.F.);
#350=ORIENTED_EDGE('',*,*,#228,.T.);
#351=ORIENTED_EDGE('',*,*,#229,.T.);
#352=ORIENTED_EDGE('',*,*,#249,.T.);
#353=ORIENTED_EDGE('',*,*,#238,.F.);
#354=ORIENTED_EDGE('',*,*,#250,.F.);
#355=ORIENTED_EDGE('',*,*,#208,.F.);
#356=ORIENTED_EDGE('',*,*,#230,.T.);
#357=ORIENTED_EDGE('',*,*,#250,.T.);
#358=ORIENTED_EDGE('',*,*,#237,.F.);
#359=CYLINDRICAL_SURFACE('',#408,4.5);
#360=CYLINDRICAL_SURFACE('',#419,6.25);
#361=CYLINDRICAL_SURFACE('',#437,2.75);
#362=CYLINDRICAL_SURFACE('',#440,2.75);
#363=CYLINDRICAL_SURFACE('',#443,2.75);
#364=CYLINDRICAL_SURFACE('',#446,2.75);
#365=ADVANCED_FACE('',(#31),#359,.F.);
#366=ADVANCED_FACE('',(#32),#360,.T.);
#367=ADVANCED_FACE('',(#33,#15),#17,.F.);
#368=ADVANCED_FACE('',(#34,#16),#18,.T.);
#369=ADVANCED_FACE('',(#35),#19,.T.);
#370=ADVANCED_FACE('',(#36),#20,.T.);
#371=ADVANCED_FACE('',(#37),#21,.T.);
#372=ADVANCED_FACE('',(#38),#22,.T.);
#373=ADVANCED_FACE('',(#39),#23,.T.);
#374=ADVANCED_FACE('',(#40),#361,.F.);
#375=ADVANCED_FACE('',(#41),#24,.T.);
#376=ADVANCED_FACE('',(#42),#25,.T.);
#377=ADVANCED_FACE('',(#43),#362,.F.);
#378=ADVANCED_FACE('',(#44),#26,.T.);
#379=ADVANCED_FACE('',(#45),#27,.T.);
#380=ADVANCED_FACE('',(#46),#363,.F.);
#381=ADVANCED_FACE('',(#47),#28,.T.);
#382=ADVANCED_FACE('',(#48),#29,.T.);
#383=ADVANCED_FACE('',(#49),#364,.F.);
#384=ADVANCED_FACE('',(#50),#30,.T.);
#385=CLOSED_SHELL('',(#365,#366,#367,#368,#369,#370,#371,#372,#373,#374,
#375,#376,#377,#378,#379,#380,#381,#382,#383,#384));
#386=DERIVED_UNIT_ELEMENT(#389,1.);
#387=DERIVED_UNIT_ELEMENT(#680,-3.);
#388=DIMENSIONAL_EXPONENTS(0.,1.,0.,0.,0.,0.,0.);
#389=(
CONVERSION_BASED_UNIT('gram',#391)
MASS_UNIT()
NAMED_UNIT(#388)
);
#390=(
MASS_UNIT()
NAMED_UNIT(*)
SI_UNIT(.KILO.,.GRAM.)
);
#391=MASS_MEASURE_WITH_UNIT(MASS_MEASURE(0.001),#390);
#392=DERIVED_UNIT((#386,#387));
#393=MEASURE_REPRESENTATION_ITEM('density measure',
POSITIVE_RATIO_MEASURE(1.),#392);
#394=PROPERTY_DEFINITION_REPRESENTATION(#399,#396);
#395=PROPERTY_DEFINITION_REPRESENTATION(#400,#397);
#396=REPRESENTATION('material name',(#398),#677);
#397=REPRESENTATION('density',(#393),#677);
#398=DESCRIPTIVE_REPRESENTATION_ITEM('Generic','Generic');
#399=PROPERTY_DEFINITION('material property','material name',#687);
#400=PROPERTY_DEFINITION('material property','density of part',#687);
#401=DATE_TIME_ROLE('creation_date');
#402=APPLIED_DATE_AND_TIME_ASSIGNMENT(#403,#401,(#687));
#403=DATE_AND_TIME(#404,#405);
#404=CALENDAR_DATE(2026,9,3);
#405=LOCAL_TIME(9,17,48.,#406);
#406=COORDINATED_UNIVERSAL_TIME_OFFSET(0,0,.BEHIND.);
#407=AXIS2_PLACEMENT_3D('',#564,#448,#449);
#408=AXIS2_PLACEMENT_3D('',#565,#450,#451);
#409=AXIS2_PLACEMENT_3D('',#567,#452,#453);
#410=AXIS2_PLACEMENT_3D('',#571,#455,#456);
#411=AXIS2_PLACEMENT_3D('',#575,#458,#459);
#412=AXIS2_PLACEMENT_3D('',#579,#461,#462);
#413=AXIS2_PLACEMENT_3D('',#583,#464,#465);
#414=AXIS2_PLACEMENT_3D('',#587,#467,#468);
#415=AXIS2_PLACEMENT_3D('',#591,#470,#471);
#416=AXIS2_PLACEMENT_3D('',#595,#473,#474);
#417=AXIS2_PLACEMENT_3D('',#599,#476,#477);
#418=AXIS2_PLACEMENT_3D('',#602,#479,#480);
#419=AXIS2_PLACEMENT_3D('',#603,#481,#482);
#420=AXIS2_PLACEMENT_3D('',#605,#483,#484);
#421=AXIS2_PLACEMENT_3D('',#608,#486,#487);
#422=AXIS2_PLACEMENT_3D('',#609,#488,#489);
#423=AXIS2_PLACEMENT_3D('',#613,#491,#492);
#424=AXIS2_PLACEMENT_3D('',#618,#495,#496);
#425=AXIS2_PLACEMENT_3D('',#623,#499,#500);
#426=AXIS2_PLACEMENT_3D('',#628,#503,#504);
#427=AXIS2_PLACEMENT_3D('',#630,#506,#507);
#428=AXIS2_PLACEMENT_3D('',#631,#508,#509);
#429=AXIS2_PLACEMENT_3D('',#635,#511,#512);
#430=AXIS2_PLACEMENT_3D('',#637,#514,#515);
#431=AXIS2_PLACEMENT_3D('',#641,#517,#518);
#432=AXIS2_PLACEMENT_3D('',#643,#520,#521);
#433=AXIS2_PLACEMENT_3D('',#647,#523,#524);
#434=AXIS2_PLACEMENT_3D('',#649,#526,#527);
#435=AXIS2_PLACEMENT_3D('',#653,#529,#530);
#436=AXIS2_PLACEMENT_3D('',#655,#532,#533);
#437=AXIS2_PLACEMENT_3D('',#657,#535,#536);
#438=AXIS2_PLACEMENT_3D('',#659,#538,#539);
#439=AXIS2_PLACEMENT_3D('',#660,#540,#541);
#440=AXIS2_PLACEMENT_3D('',#662,#543,#544);
#441=AXIS2_PLACEMENT_3D('',#664,#546,#547);
#442=AXIS2_PLACEMENT_3D('',#665,#548,#549);
#443=AXIS2_PLACEMENT_3D('',#667,#551,#552);
#444=AXIS2_PLACEMENT_3D('',#669,#554,#555);
#445=AXIS2_PLACEMENT_3D('',#670,#556,#557);
#446=AXIS2_PLACEMENT_3D('',#672,#559,#560);
#447=AXIS2_PLACEMENT_3D('',#674,#562,#563);
#448=DIRECTION('axis',(0.,0.,1.));
#449=DIRECTION('refdir',(1.,0.,0.));
#450=DIRECTION('center_axis',(0.,0.,-1.));
#451=DIRECTION('ref_axis',(1.,0.,0.));
#452=DIRECTION('center_axis',(0.,0.,-1.));
#453=DIRECTION('ref_axis',(1.,0.,0.));
#454=DIRECTION('',(0.,0.,-1.));
#455=DIRECTION('center_axis',(0.,0.,-1.));
#456=DIRECTION('ref_axis',(-0.99604154804511,-0.0888888888888909,0.));
#457=DIRECTION('',(0.,0.,1.));
#458=DIRECTION('center_axis',(0.,0.,1.));
#459=DIRECTION('ref_axis',(-0.0888888888888909,0.99604154804511,0.));
#460=DIRECTION('',(0.,0.,1.));
#461=DIRECTION('center_axis',(0.,0.,-1.));
#462=DIRECTION('ref_axis',(-0.0888888888888909,0.99604154804511,0.));
#463=DIRECTION('',(0.,0.,1.));
#464=DIRECTION('center_axis',(0.,0.,1.));
#465=DIRECTION('ref_axis',(0.99604154804511,0.0888888888888909,0.));
#466=DIRECTION('',(0.,0.,1.));
#467=DIRECTION('center_axis',(0.,0.,-1.));
#468=DIRECTION('ref_axis',(1.,0.,0.));
#469=DIRECTION('',(0.,0.,1.));
#470=DIRECTION('center_axis',(0.,0.,1.));
#471=DIRECTION('ref_axis',(0.0888888888888909,-0.99604154804511,0.));
#472=DIRECTION('',(0.,0.,1.));
#473=DIRECTION('center_axis',(0.,0.,-1.));
#474=DIRECTION('ref_axis',(0.0888888888888909,-0.99604154804511,0.));
#475=DIRECTION('',(0.,0.,1.));
#476=DIRECTION('center_axis',(0.,0.,1.));
#477=DIRECTION('ref_axis',(-0.99604154804511,-0.0888888888888909,0.));
#478=DIRECTION('',(0.,0.,1.));
#479=DIRECTION('center_axis',(0.,0.,-1.));
#480=DIRECTION('ref_axis',(-0.99604154804511,-0.0888888888888909,0.));
#481=DIRECTION('center_axis',(0.,0.,-1.));
#482=DIRECTION('ref_axis',(1.,0.,0.));
#483=DIRECTION('center_axis',(0.,0.,1.));
#484=DIRECTION('ref_axis',(1.,0.,0.));
#485=DIRECTION('',(0.,0.,1.));
#486=DIRECTION('center_axis',(0.,0.,1.));
#487=DIRECTION('ref_axis',(1.,0.,0.));
#488=DIRECTION('center_axis',(0.,0.,1.));
#489=DIRECTION('ref_axis',(1.,0.,0.));
#490=DIRECTION('',(1.,0.,0.));
#491=DIRECTION('center_axis',(0.,0.,-1.));
#492=DIRECTION('ref_axis',(0.145454545454508,0.989364935302754,0.));
#493=DIRECTION('',(0.,-1.,0.));
#494=DIRECTION('',(0.,1.,0.));
#495=DIRECTION('center_axis',(0.,0.,-1.));
#496=DIRECTION('ref_axis',(-0.989364935302754,0.145454545454508,0.));
#497=DIRECTION('',(1.,0.,0.));
#498=DIRECTION('',(-1.,0.,0.));
#499=DIRECTION('center_axis',(0.,0.,-1.));
#500=DIRECTION('ref_axis',(-0.145454545454508,-0.989364935302754,0.));
#501=DIRECTION('',(0.,1.,0.));
#502=DIRECTION('',(0.,-1.,0.));
#503=DIRECTION('center_axis',(0.,0.,-1.));
#504=DIRECTION('ref_axis',(0.989364935302754,-0.145454545454508,0.));
#505=DIRECTION('',(-1.,0.,0.));
#506=DIRECTION('center_axis',(0.,0.,1.));
#507=DIRECTION('ref_axis',(1.,0.,0.));
#508=DIRECTION('center_axis',(0.,0.,1.));
#509=DIRECTION('ref_axis',(1.,0.,0.));
#510=DIRECTION('',(0.,1.,0.));
#511=DIRECTION('center_axis',(0.,0.,-1.));
#512=DIRECTION('ref_axis',(-0.145454545454508,-0.989364935302754,0.));
#513=DIRECTION('',(-1.,0.,0.));
#514=DIRECTION('center_axis',(0.,0.,1.));
#515=DIRECTION('ref_axis',(1.,0.,0.));
#516=DIRECTION('',(0.,-1.,0.));
#517=DIRECTION('center_axis',(0.,0.,-1.));
#518=DIRECTION('ref_axis',(0.145454545454508,0.989364935302754,0.));
#519=DIRECTION('',(1.,0.,0.));
#520=DIRECTION('center_axis',(0.,0.,1.));
#521=DIRECTION('ref_axis',(1.,0.,0.));
#522=DIRECTION('',(-1.,0.,0.));
#523=DIRECTION('center_axis',(0.,0.,-1.));
#524=DIRECTION('ref_axis',(0.989364935302754,-0.145454545454508,0.));
#525=DIRECTION('',(0.,-1.,0.));
#526=DIRECTION('center_axis',(0.,0.,1.));
#527=DIRECTION('ref_axis',(1.,0.,0.));
#528=DIRECTION('',(1.,0.,0.));
#529=DIRECTION('center_axis',(0.,0.,-1.));
#530=DIRECTION('ref_axis',(-0.989364935302754,0.145454545454508,0.));
#531=DIRECTION('',(0.,1.,0.));
#532=DIRECTION('center_axis',(0.,1.,0.));
#533=DIRECTION('ref_axis',(1.,0.,0.));
#534=DIRECTION('',(0.,0.,1.));
#535=DIRECTION('center_axis',(0.,0.,-1.));
#536=DIRECTION('ref_axis',(1.,0.,0.));
#537=DIRECTION('',(0.,0.,1.));
#538=DIRECTION('center_axis',(1.,0.,0.));
#539=DIRECTION('ref_axis',(0.,1.,0.));
#540=DIRECTION('center_axis',(-1.,0.,0.));
#541=DIRECTION('ref_axis',(0.,0.,1.));
#542=DIRECTION('',(0.,0.,1.));
#543=DIRECTION('center_axis',(0.,0.,-1.));
#544=DIRECTION('ref_axis',(1.,0.,0.));
#545=DIRECTION('',(0.,0.,1.));
#546=DIRECTION('center_axis',(0.,-1.,0.));
#547=DIRECTION('ref_axis',(0.,0.,-1.));
#548=DIRECTION('center_axis',(1.,0.,0.));
#549=DIRECTION('ref_axis',(0.,1.,0.));
#550=DIRECTION('',(0.,0.,1.));
#551=DIRECTION('center_axis',(0.,0.,-1.));
#552=DIRECTION('ref_axis',(1.,0.,0.));
#553=DIRECTION('',(0.,0.,1.));
#554=DIRECTION('center_axis',(0.,-1.,0.));
#555=DIRECTION('ref_axis',(0.,0.,-1.));
#556=DIRECTION('center_axis',(-1.,0.,0.));
#557=DIRECTION('ref_axis',(0.,0.,1.));
#558=DIRECTION('',(0.,0.,1.));
#559=DIRECTION('center_axis',(0.,0.,-1.));
#560=DIRECTION('ref_axis',(1.,0.,0.));
#561=DIRECTION('',(0.,0.,1.));
#562=DIRECTION('center_axis',(0.,1.,0.));
#563=DIRECTION('ref_axis',(1.,0.,0.));
#564=CARTESIAN_POINT('',(0.,0.,0.));
#565=CARTESIAN_POINT('Origin',(0.,0.,0.));
#566=CARTESIAN_POINT('',(-4.5,-5.51091059616309E-16,1.5));
#567=CARTESIAN_POINT('Origin',(0.,0.,1.5));
#568=CARTESIAN_POINT('',(-4.5,5.51091059616309E-16,0.));
#569=CARTESIAN_POINT('',(-4.5,5.51091059616309E-16,0.));
#570=CARTESIAN_POINT('',(-4.482186966203,0.4,0.));
#571=CARTESIAN_POINT('Origin',(0.,0.,0.));
#572=CARTESIAN_POINT('',(-4.482186966203,0.4,0.3));
#573=CARTESIAN_POINT('',(-4.482186966203,0.4,0.));
#574=CARTESIAN_POINT('',(-0.4,4.482186966203,0.3));
#575=CARTESIAN_POINT('Origin',(0.,0.,0.3));
#576=CARTESIAN_POINT('',(-0.4,4.482186966203,0.));
#577=CARTESIAN_POINT('',(-0.4,4.482186966203,0.));
#578=CARTESIAN_POINT('',(0.4,4.482186966203,0.));
#579=CARTESIAN_POINT('Origin',(0.,0.,0.));
#580=CARTESIAN_POINT('',(0.4,4.482186966203,0.3));
#581=CARTESIAN_POINT('',(0.4,4.482186966203,0.));
#582=CARTESIAN_POINT('',(4.482186966203,0.4,0.3));
#583=CARTESIAN_POINT('Origin',(0.,0.,0.3));
#584=CARTESIAN_POINT('',(4.482186966203,0.4,0.));
#585=CARTESIAN_POINT('',(4.482186966203,0.4,0.));
#586=CARTESIAN_POINT('',(4.482186966203,-0.4,0.));
#587=CARTESIAN_POINT('Origin',(0.,0.,0.));
#588=CARTESIAN_POINT('',(4.482186966203,-0.4,0.3));
#589=CARTESIAN_POINT('',(4.482186966203,-0.4,0.));
#590=CARTESIAN_POINT('',(0.4,-4.482186966203,0.3));
#591=CARTESIAN_POINT('Origin',(0.,0.,0.3));
#592=CARTESIAN_POINT('',(0.4,-4.482186966203,0.));
#593=CARTESIAN_POINT('',(0.4,-4.482186966203,0.));
#594=CARTESIAN_POINT('',(-0.4,-4.482186966203,0.));
#595=CARTESIAN_POINT('Origin',(0.,0.,0.));
#596=CARTESIAN_POINT('',(-0.4,-4.482186966203,0.3));
#597=CARTESIAN_POINT('',(-0.4,-4.482186966203,0.));
#598=CARTESIAN_POINT('',(-4.482186966203,-0.4,0.3));
#599=CARTESIAN_POINT('Origin',(0.,0.,0.3));
#600=CARTESIAN_POINT('',(-4.482186966203,-0.4,0.));
#601=CARTESIAN_POINT('',(-4.482186966203,-0.4,0.));
#602=CARTESIAN_POINT('Origin',(0.,0.,0.));
#603=CARTESIAN_POINT('Origin',(0.,0.,0.));
#604=CARTESIAN_POINT('',(-6.25,-7.65404249467096E-16,0.));
#605=CARTESIAN_POINT('Origin',(0.,0.,0.));
#606=CARTESIAN_POINT('',(-6.25,-7.65404249467096E-16,1.5));
#607=CARTESIAN_POINT('',(-6.25,7.65404249467096E-16,0.));
#608=CARTESIAN_POINT('Origin',(0.,0.,1.5));
#609=CARTESIAN_POINT('Origin',(0.,0.,0.));
#610=CARTESIAN_POINT('',(2.720753572083,0.4,0.));
#611=CARTESIAN_POINT('',(2.720753572083,0.4,0.));
#612=CARTESIAN_POINT('',(0.4,2.720753572083,0.));
#613=CARTESIAN_POINT('Origin',(0.,0.,0.));
#614=CARTESIAN_POINT('',(0.4,4.482186966203,0.));
#615=CARTESIAN_POINT('',(-0.4,2.720753572083,0.));
#616=CARTESIAN_POINT('',(-0.4,2.720753572083,0.));
#617=CARTESIAN_POINT('',(-2.720753572083,0.4,0.));
#618=CARTESIAN_POINT('Origin',(0.,0.,0.));
#619=CARTESIAN_POINT('',(-4.482186966203,0.4,0.));
#620=CARTESIAN_POINT('',(-2.720753572083,-0.4,0.));
#621=CARTESIAN_POINT('',(-2.720753572083,-0.4,0.));
#622=CARTESIAN_POINT('',(-0.4,-2.720753572083,0.));
#623=CARTESIAN_POINT('Origin',(0.,0.,0.));
#624=CARTESIAN_POINT('',(-0.4,-4.482186966203,0.));
#625=CARTESIAN_POINT('',(0.4,-2.720753572083,0.));
#626=CARTESIAN_POINT('',(0.4,-2.720753572083,0.));
#627=CARTESIAN_POINT('',(2.720753572083,-0.4,0.));
#628=CARTESIAN_POINT('Origin',(0.,0.,0.));
#629=CARTESIAN_POINT('',(4.482186966203,-0.4,0.));
#630=CARTESIAN_POINT('Origin',(0.,0.,1.5));
#631=CARTESIAN_POINT('Origin',(0.,0.,0.3));
#632=CARTESIAN_POINT('',(-0.4,-2.720753572083,0.3));
#633=CARTESIAN_POINT('',(-0.4,-4.482186966203,0.3));
#634=CARTESIAN_POINT('',(-2.720753572083,-0.4,0.3));
#635=CARTESIAN_POINT('Origin',(0.,0.,0.3));
#636=CARTESIAN_POINT('',(-2.720753572083,-0.4,0.3));
#637=CARTESIAN_POINT('Origin',(0.,0.,0.3));
#638=CARTESIAN_POINT('',(0.4,2.720753572083,0.3));
#639=CARTESIAN_POINT('',(0.4,4.482186966203,0.3));
#640=CARTESIAN_POINT('',(2.720753572083,0.4,0.3));
#641=CARTESIAN_POINT('Origin',(0.,0.,0.3));
#642=CARTESIAN_POINT('',(2.720753572083,0.4,0.3));
#643=CARTESIAN_POINT('Origin',(0.,0.,0.3));
#644=CARTESIAN_POINT('',(2.720753572083,-0.4,0.3));
#645=CARTESIAN_POINT('',(4.482186966203,-0.4,0.3));
#646=CARTESIAN_POINT('',(0.4,-2.720753572083,0.3));
#647=CARTESIAN_POINT('Origin',(0.,0.,0.3));
#648=CARTESIAN_POINT('',(0.4,-2.720753572083,0.3));
#649=CARTESIAN_POINT('Origin',(0.,0.,0.3));
#650=CARTESIAN_POINT('',(-2.720753572083,0.4,0.3));
#651=CARTESIAN_POINT('',(-4.482186966203,0.4,0.3));
#652=CARTESIAN_POINT('',(-0.4,2.720753572083,0.3));
#653=CARTESIAN_POINT('Origin',(0.,0.,0.3));
#654=CARTESIAN_POINT('',(-0.4,2.720753572083,0.3));
#655=CARTESIAN_POINT('Origin',(-2.720753572083,-0.4,0.));
#656=CARTESIAN_POINT('',(-2.720753572083,-0.4,0.));
#657=CARTESIAN_POINT('Origin',(0.,0.,0.));
#658=CARTESIAN_POINT('',(-0.4,-2.720753572083,0.));
#659=CARTESIAN_POINT('Origin',(-0.4,-4.482186966203,0.));
#660=CARTESIAN_POINT('Origin',(0.4,4.482186966203,0.));
#661=CARTESIAN_POINT('',(0.4,2.720753572083,0.));
#662=CARTESIAN_POINT('Origin',(0.,0.,0.));
#663=CARTESIAN_POINT('',(2.720753572083,0.4,0.));
#664=CARTESIAN_POINT('Origin',(2.720753572083,0.4,0.));
#665=CARTESIAN_POINT('Origin',(-0.4,2.720753572083,0.));
#666=CARTESIAN_POINT('',(-0.4,2.720753572083,0.));
#667=CARTESIAN_POINT('Origin',(0.,0.,0.));
#668=CARTESIAN_POINT('',(-2.720753572083,0.4,0.));
#669=CARTESIAN_POINT('Origin',(-4.482186966203,0.4,0.));
#670=CARTESIAN_POINT('Origin',(0.4,-2.720753572083,0.));
#671=CARTESIAN_POINT('',(0.4,-2.720753572083,0.));
#672=CARTESIAN_POINT('Origin',(0.,0.,0.));
#673=CARTESIAN_POINT('',(2.720753572083,-0.4,0.));
#674=CARTESIAN_POINT('Origin',(4.482186966203,-0.4,0.));
#675=UNCERTAINTY_MEASURE_WITH_UNIT(LENGTH_MEASURE(0.01),#679,
'DISTANCE_ACCURACY_VALUE',
'Maximum model space distance between geometric entities at asserted c
onnectivities');
#676=UNCERTAINTY_MEASURE_WITH_UNIT(LENGTH_MEASURE(0.01),#679,
'DISTANCE_ACCURACY_VALUE',
'Maximum model space distance between geometric entities at asserted c
onnectivities');
#677=(
GEOMETRIC_REPRESENTATION_CONTEXT(3)
GLOBAL_UNCERTAINTY_ASSIGNED_CONTEXT((#675))
GLOBAL_UNIT_ASSIGNED_CONTEXT((#679,#681,#682))
REPRESENTATION_CONTEXT('','3D')
);
#678=(
GEOMETRIC_REPRESENTATION_CONTEXT(3)
GLOBAL_UNCERTAINTY_ASSIGNED_CONTEXT((#676))
GLOBAL_UNIT_ASSIGNED_CONTEXT((#679,#681,#682))
REPRESENTATION_CONTEXT('','3D')
);
#679=(
LENGTH_UNIT()
NAMED_UNIT(*)
SI_UNIT(.MILLI.,.METRE.)
);
#680=(
LENGTH_UNIT()
NAMED_UNIT(*)
SI_UNIT(.CENTI.,.METRE.)
);
#681=(
NAMED_UNIT(*)
PLANE_ANGLE_UNIT()
SI_UNIT($,.RADIAN.)
);
#682=(
NAMED_UNIT(*)
SI_UNIT($,.STERADIAN.)
SOLID_ANGLE_UNIT()
);
#683=SHAPE_DEFINITION_REPRESENTATION(#684,#685);
#684=PRODUCT_DEFINITION_SHAPE('',$,#687);
#685=SHAPE_REPRESENTATION('',(#407),#677);
#686=PRODUCT_DEFINITION_CONTEXT('part definition',#691,'design');
#687=PRODUCT_DEFINITION('3842542330','3842542330',#688,#686);
#688=PRODUCT_DEFINITION_FORMATION('',$,#693);
#689=PRODUCT_RELATED_PRODUCT_CATEGORY('3842542330','3842542330',(#693));
#690=APPLICATION_PROTOCOL_DEFINITION('international standard',
'automotive_design',2009,#691);
#691=APPLICATION_CONTEXT(
'Core Data for Automotive Mechanical Design Process');
#692=PRODUCT_CONTEXT('part definition',#691,'mechanical');
#693=PRODUCT('3842542330','3842542330','RETAINING RING',(#692));
#694=PRESENTATION_STYLE_ASSIGNMENT((#695));
#695=SURFACE_STYLE_USAGE(.BOTH.,#698);
#696=SURFACE_STYLE_RENDERING_WITH_PROPERTIES($,#702,(#697));
#697=SURFACE_STYLE_TRANSPARENT(0.);
#698=SURFACE_SIDE_STYLE('',(#699,#696));
#699=SURFACE_STYLE_FILL_AREA(#700);
#700=FILL_AREA_STYLE('',(#701));
#701=FILL_AREA_STYLE_COLOUR('',#702);
#702=COLOUR_RGB('',0.749019607843137,0.749019607843137,0.749019607843137);
ENDSEC;
END-ISO-10303-21;
