ISO-10303-21;
HEADER;
/* Generated by software containing ST-Developer
 * from STEP Tools, Inc. (www.steptools.com) 
 */

FILE_DESCRIPTION(
/* description */ ('FLOOR DOWEL'),
/* implementation_level */ '2;1');

FILE_NAME(
/* name */ '3842540668.stp',
/* time_stamp */ '2026-03-17T09:38:26+01:00',
/* author */ ('andreas.svensson'),
/* organization */ (''),
/* preprocessor_version */ 'ST-DEVELOPER v20.1',
/* originating_system */ 'Autodesk Inventor 2026',
/* authorisation */ '');

FILE_SCHEMA (('AUTOMOTIVE_DESIGN { 1 0 10303 214 3 1 1 }'));
ENDSEC;

DATA;
#10=MECHANICAL_DESIGN_GEOMETRIC_PRESENTATION_REPRESENTATION('',(#13),#573);
#11=SHAPE_REPRESENTATION_RELATIONSHIP('SRR','None',#580,#12);
#12=ADVANCED_BREP_SHAPE_REPRESENTATION('',(#14),#572);
#13=STYLED_ITEM('',(#589),#14);
#14=MANIFOLD_SOLID_BREP('Solid1',#324);
#15=FACE_BOUND('',#72,.T.);
#16=FACE_BOUND('',#81,.T.);
#17=FACE_BOUND('',#83,.T.);
#18=FACE_BOUND('',#85,.T.);
#19=FACE_BOUND('',#87,.T.);
#20=FACE_BOUND('',#89,.T.);
#21=FACE_BOUND('',#91,.T.);
#22=PLANE('',#368);
#23=PLANE('',#369);
#24=PLANE('',#370);
#25=PLANE('',#371);
#26=PLANE('',#372);
#27=PLANE('',#373);
#28=PLANE('',#374);
#29=PLANE('',#375);
#30=PLANE('',#376);
#31=PLANE('',#377);
#32=PLANE('',#378);
#33=PLANE('',#379);
#34=PLANE('',#380);
#35=PLANE('',#381);
#36=PLANE('',#382);
#37=CYLINDRICAL_SURFACE('',#350,4.25);
#38=CYLINDRICAL_SURFACE('',#356,4.);
#39=CYLINDRICAL_SURFACE('',#359,9.);
#40=CYLINDRICAL_SURFACE('',#362,4.);
#41=CYLINDRICAL_SURFACE('',#365,2.75);
#42=FACE_OUTER_BOUND('',#64,.T.);
#43=FACE_OUTER_BOUND('',#65,.T.);
#44=FACE_OUTER_BOUND('',#66,.T.);
#45=FACE_OUTER_BOUND('',#67,.T.);
#46=FACE_OUTER_BOUND('',#68,.T.);
#47=FACE_OUTER_BOUND('',#69,.T.);
#48=FACE_OUTER_BOUND('',#70,.T.);
#49=FACE_OUTER_BOUND('',#71,.T.);
#50=FACE_OUTER_BOUND('',#73,.T.);
#51=FACE_OUTER_BOUND('',#74,.T.);
#52=FACE_OUTER_BOUND('',#75,.T.);
#53=FACE_OUTER_BOUND('',#76,.T.);
#54=FACE_OUTER_BOUND('',#77,.T.);
#55=FACE_OUTER_BOUND('',#78,.T.);
#56=FACE_OUTER_BOUND('',#79,.T.);
#57=FACE_OUTER_BOUND('',#80,.T.);
#58=FACE_OUTER_BOUND('',#82,.T.);
#59=FACE_OUTER_BOUND('',#84,.T.);
#60=FACE_OUTER_BOUND('',#86,.T.);
#61=FACE_OUTER_BOUND('',#88,.T.);
#62=FACE_OUTER_BOUND('',#90,.T.);
#63=FACE_OUTER_BOUND('',#92,.T.);
#64=EDGE_LOOP('',(#222,#223,#224,#225));
#65=EDGE_LOOP('',(#226,#227,#228,#229));
#66=EDGE_LOOP('',(#230,#231,#232,#233));
#67=EDGE_LOOP('',(#234,#235,#236,#237));
#68=EDGE_LOOP('',(#238,#239,#240,#241));
#69=EDGE_LOOP('',(#242,#243,#244,#245));
#70=EDGE_LOOP('',(#246,#247,#248,#249));
#71=EDGE_LOOP('',(#250,#251,#252,#253,#254,#255));
#72=EDGE_LOOP('',(#256));
#73=EDGE_LOOP('',(#257,#258,#259,#260));
#74=EDGE_LOOP('',(#261,#262,#263,#264));
#75=EDGE_LOOP('',(#265,#266,#267,#268));
#76=EDGE_LOOP('',(#269,#270,#271,#272));
#77=EDGE_LOOP('',(#273,#274,#275,#276));
#78=EDGE_LOOP('',(#277,#278,#279,#280));
#79=EDGE_LOOP('',(#281));
#80=EDGE_LOOP('',(#282));
#81=EDGE_LOOP('',(#283));
#82=EDGE_LOOP('',(#284));
#83=EDGE_LOOP('',(#285,#286,#287,#288,#289,#290));
#84=EDGE_LOOP('',(#291));
#85=EDGE_LOOP('',(#292));
#86=EDGE_LOOP('',(#293));
#87=EDGE_LOOP('',(#294));
#88=EDGE_LOOP('',(#295));
#89=EDGE_LOOP('',(#296));
#90=EDGE_LOOP('',(#297));
#91=EDGE_LOOP('',(#298));
#92=EDGE_LOOP('',(#299));
#93=LINE('',#487,#118);
#94=LINE('',#493,#119);
#95=LINE('',#499,#120);
#96=LINE('',#505,#121);
#97=LINE('',#511,#122);
#98=LINE('',#517,#123);
#99=LINE('',#523,#124);
#100=LINE('',#528,#125);
#101=LINE('',#530,#126);
#102=LINE('',#532,#127);
#103=LINE('',#534,#128);
#104=LINE('',#536,#129);
#105=LINE('',#537,#130);
#106=LINE('',#541,#131);
#107=LINE('',#542,#132);
#108=LINE('',#543,#133);
#109=LINE('',#546,#134);
#110=LINE('',#547,#135);
#111=LINE('',#550,#136);
#112=LINE('',#551,#137);
#113=LINE('',#554,#138);
#114=LINE('',#555,#139);
#115=LINE('',#558,#140);
#116=LINE('',#559,#141);
#117=LINE('',#561,#142);
#118=VECTOR('',#389,3.74074074074073);
#119=VECTOR('',#396,4.25);
#120=VECTOR('',#403,3.03703703703707);
#121=VECTOR('',#410,4.);
#122=VECTOR('',#417,9.);
#123=VECTOR('',#424,4.);
#124=VECTOR('',#431,2.75);
#125=VECTOR('',#436,7.50555349946513);
#126=VECTOR('',#437,7.50555349946515);
#127=VECTOR('',#438,7.50555349946512);
#128=VECTOR('',#439,7.50555349946513);
#129=VECTOR('',#440,7.50555349946512);
#130=VECTOR('',#441,7.50555349946513);
#131=VECTOR('',#444,7.50555349946515);
#132=VECTOR('',#445,6.3);
#133=VECTOR('',#446,6.3);
#134=VECTOR('',#449,7.50555349946512);
#135=VECTOR('',#450,6.3);
#136=VECTOR('',#453,7.50555349946513);
#137=VECTOR('',#454,6.3);
#138=VECTOR('',#457,7.50555349946512);
#139=VECTOR('',#458,6.3);
#140=VECTOR('',#461,7.50555349946513);
#141=VECTOR('',#462,6.3);
#142=VECTOR('',#465,7.50555349946513);
#143=CIRCLE('',#348,4.);
#144=CIRCLE('',#349,3.48148148148147);
#145=CIRCLE('',#351,4.25);
#146=CIRCLE('',#352,4.25);
#147=CIRCLE('',#354,3.07407407407413);
#148=CIRCLE('',#355,3.);
#149=CIRCLE('',#357,4.);
#150=CIRCLE('',#358,4.);
#151=CIRCLE('',#360,9.);
#152=CIRCLE('',#361,9.);
#153=CIRCLE('',#363,4.);
#154=CIRCLE('',#364,4.);
#155=CIRCLE('',#366,2.75);
#156=CIRCLE('',#367,2.75);
#157=VERTEX_POINT('',#484);
#158=VERTEX_POINT('',#486);
#159=VERTEX_POINT('',#490);
#160=VERTEX_POINT('',#492);
#161=VERTEX_POINT('',#496);
#162=VERTEX_POINT('',#498);
#163=VERTEX_POINT('',#502);
#164=VERTEX_POINT('',#504);
#165=VERTEX_POINT('',#508);
#166=VERTEX_POINT('',#510);
#167=VERTEX_POINT('',#514);
#168=VERTEX_POINT('',#516);
#169=VERTEX_POINT('',#520);
#170=VERTEX_POINT('',#522);
#171=VERTEX_POINT('',#526);
#172=VERTEX_POINT('',#527);
#173=VERTEX_POINT('',#529);
#174=VERTEX_POINT('',#531);
#175=VERTEX_POINT('',#533);
#176=VERTEX_POINT('',#535);
#177=VERTEX_POINT('',#539);
#178=VERTEX_POINT('',#540);
#179=VERTEX_POINT('',#545);
#180=VERTEX_POINT('',#549);
#181=VERTEX_POINT('',#553);
#182=VERTEX_POINT('',#557);
#183=EDGE_CURVE('',#157,#157,#143,.T.);
#184=EDGE_CURVE('',#157,#158,#93,.T.);
#185=EDGE_CURVE('',#158,#158,#144,.T.);
#186=EDGE_CURVE('',#159,#159,#145,.T.);
#187=EDGE_CURVE('',#159,#160,#94,.T.);
#188=EDGE_CURVE('',#160,#160,#146,.T.);
#189=EDGE_CURVE('',#161,#161,#147,.T.);
#190=EDGE_CURVE('',#161,#162,#95,.T.);
#191=EDGE_CURVE('',#162,#162,#148,.T.);
#192=EDGE_CURVE('',#163,#163,#149,.T.);
#193=EDGE_CURVE('',#163,#164,#96,.T.);
#194=EDGE_CURVE('',#164,#164,#150,.T.);
#195=EDGE_CURVE('',#165,#165,#151,.T.);
#196=EDGE_CURVE('',#165,#166,#97,.T.);
#197=EDGE_CURVE('',#166,#166,#152,.T.);
#198=EDGE_CURVE('',#167,#167,#153,.T.);
#199=EDGE_CURVE('',#167,#168,#98,.T.);
#200=EDGE_CURVE('',#168,#168,#154,.T.);
#201=EDGE_CURVE('',#169,#169,#155,.T.);
#202=EDGE_CURVE('',#169,#170,#99,.T.);
#203=EDGE_CURVE('',#170,#170,#156,.T.);
#204=EDGE_CURVE('',#171,#172,#100,.T.);
#205=EDGE_CURVE('',#173,#171,#101,.T.);
#206=EDGE_CURVE('',#174,#173,#102,.T.);
#207=EDGE_CURVE('',#175,#174,#103,.T.);
#208=EDGE_CURVE('',#176,#175,#104,.T.);
#209=EDGE_CURVE('',#172,#176,#105,.T.);
#210=EDGE_CURVE('',#177,#178,#106,.T.);
#211=EDGE_CURVE('',#173,#177,#107,.T.);
#212=EDGE_CURVE('',#171,#178,#108,.T.);
#213=EDGE_CURVE('',#179,#177,#109,.T.);
#214=EDGE_CURVE('',#174,#179,#110,.T.);
#215=EDGE_CURVE('',#180,#179,#111,.T.);
#216=EDGE_CURVE('',#175,#180,#112,.T.);
#217=EDGE_CURVE('',#181,#180,#113,.T.);
#218=EDGE_CURVE('',#176,#181,#114,.T.);
#219=EDGE_CURVE('',#182,#181,#115,.T.);
#220=EDGE_CURVE('',#172,#182,#116,.T.);
#221=EDGE_CURVE('',#178,#182,#117,.T.);
#222=ORIENTED_EDGE('',*,*,#183,.F.);
#223=ORIENTED_EDGE('',*,*,#184,.T.);
#224=ORIENTED_EDGE('',*,*,#185,.T.);
#225=ORIENTED_EDGE('',*,*,#184,.F.);
#226=ORIENTED_EDGE('',*,*,#186,.T.);
#227=ORIENTED_EDGE('',*,*,#187,.T.);
#228=ORIENTED_EDGE('',*,*,#188,.F.);
#229=ORIENTED_EDGE('',*,*,#187,.F.);
#230=ORIENTED_EDGE('',*,*,#189,.F.);
#231=ORIENTED_EDGE('',*,*,#190,.T.);
#232=ORIENTED_EDGE('',*,*,#191,.T.);
#233=ORIENTED_EDGE('',*,*,#190,.F.);
#234=ORIENTED_EDGE('',*,*,#192,.T.);
#235=ORIENTED_EDGE('',*,*,#193,.T.);
#236=ORIENTED_EDGE('',*,*,#194,.F.);
#237=ORIENTED_EDGE('',*,*,#193,.F.);
#238=ORIENTED_EDGE('',*,*,#195,.T.);
#239=ORIENTED_EDGE('',*,*,#196,.T.);
#240=ORIENTED_EDGE('',*,*,#197,.F.);
#241=ORIENTED_EDGE('',*,*,#196,.F.);
#242=ORIENTED_EDGE('',*,*,#198,.T.);
#243=ORIENTED_EDGE('',*,*,#199,.T.);
#244=ORIENTED_EDGE('',*,*,#200,.T.);
#245=ORIENTED_EDGE('',*,*,#199,.F.);
#246=ORIENTED_EDGE('',*,*,#201,.T.);
#247=ORIENTED_EDGE('',*,*,#202,.T.);
#248=ORIENTED_EDGE('',*,*,#203,.F.);
#249=ORIENTED_EDGE('',*,*,#202,.F.);
#250=ORIENTED_EDGE('',*,*,#204,.F.);
#251=ORIENTED_EDGE('',*,*,#205,.F.);
#252=ORIENTED_EDGE('',*,*,#206,.F.);
#253=ORIENTED_EDGE('',*,*,#207,.F.);
#254=ORIENTED_EDGE('',*,*,#208,.F.);
#255=ORIENTED_EDGE('',*,*,#209,.F.);
#256=ORIENTED_EDGE('',*,*,#200,.F.);
#257=ORIENTED_EDGE('',*,*,#210,.F.);
#258=ORIENTED_EDGE('',*,*,#211,.F.);
#259=ORIENTED_EDGE('',*,*,#205,.T.);
#260=ORIENTED_EDGE('',*,*,#212,.T.);
#261=ORIENTED_EDGE('',*,*,#213,.F.);
#262=ORIENTED_EDGE('',*,*,#214,.F.);
#263=ORIENTED_EDGE('',*,*,#206,.T.);
#264=ORIENTED_EDGE('',*,*,#211,.T.);
#265=ORIENTED_EDGE('',*,*,#215,.F.);
#266=ORIENTED_EDGE('',*,*,#216,.F.);
#267=ORIENTED_EDGE('',*,*,#207,.T.);
#268=ORIENTED_EDGE('',*,*,#214,.T.);
#269=ORIENTED_EDGE('',*,*,#217,.F.);
#270=ORIENTED_EDGE('',*,*,#218,.F.);
#271=ORIENTED_EDGE('',*,*,#208,.T.);
#272=ORIENTED_EDGE('',*,*,#216,.T.);
#273=ORIENTED_EDGE('',*,*,#219,.F.);
#274=ORIENTED_EDGE('',*,*,#220,.F.);
#275=ORIENTED_EDGE('',*,*,#209,.T.);
#276=ORIENTED_EDGE('',*,*,#218,.T.);
#277=ORIENTED_EDGE('',*,*,#221,.F.);
#278=ORIENTED_EDGE('',*,*,#212,.F.);
#279=ORIENTED_EDGE('',*,*,#204,.T.);
#280=ORIENTED_EDGE('',*,*,#220,.T.);
#281=ORIENTED_EDGE('',*,*,#201,.F.);
#282=ORIENTED_EDGE('',*,*,#198,.F.);
#283=ORIENTED_EDGE('',*,*,#203,.T.);
#284=ORIENTED_EDGE('',*,*,#195,.F.);
#285=ORIENTED_EDGE('',*,*,#210,.T.);
#286=ORIENTED_EDGE('',*,*,#221,.T.);
#287=ORIENTED_EDGE('',*,*,#219,.T.);
#288=ORIENTED_EDGE('',*,*,#217,.T.);
#289=ORIENTED_EDGE('',*,*,#215,.T.);
#290=ORIENTED_EDGE('',*,*,#213,.T.);
#291=ORIENTED_EDGE('',*,*,#197,.T.);
#292=ORIENTED_EDGE('',*,*,#192,.F.);
#293=ORIENTED_EDGE('',*,*,#194,.T.);
#294=ORIENTED_EDGE('',*,*,#191,.F.);
#295=ORIENTED_EDGE('',*,*,#186,.F.);
#296=ORIENTED_EDGE('',*,*,#189,.T.);
#297=ORIENTED_EDGE('',*,*,#188,.T.);
#298=ORIENTED_EDGE('',*,*,#185,.F.);
#299=ORIENTED_EDGE('',*,*,#183,.T.);
#300=CONICAL_SURFACE('',#347,3.74074074074073,0.0739390376581825);
#301=CONICAL_SURFACE('',#353,3.03703703703707,0.0739390376582411);
#302=ADVANCED_FACE('',(#42),#300,.T.);
#303=ADVANCED_FACE('',(#43),#37,.T.);
#304=ADVANCED_FACE('',(#44),#301,.T.);
#305=ADVANCED_FACE('',(#45),#38,.T.);
#306=ADVANCED_FACE('',(#46),#39,.T.);
#307=ADVANCED_FACE('',(#47),#40,.T.);
#308=ADVANCED_FACE('',(#48),#41,.T.);
#309=ADVANCED_FACE('',(#49,#15),#22,.T.);
#310=ADVANCED_FACE('',(#50),#23,.T.);
#311=ADVANCED_FACE('',(#51),#24,.T.);
#312=ADVANCED_FACE('',(#52),#25,.T.);
#313=ADVANCED_FACE('',(#53),#26,.T.);
#314=ADVANCED_FACE('',(#54),#27,.T.);
#315=ADVANCED_FACE('',(#55),#28,.T.);
#316=ADVANCED_FACE('',(#56),#29,.T.);
#317=ADVANCED_FACE('',(#57,#16),#30,.T.);
#318=ADVANCED_FACE('',(#58,#17),#31,.T.);
#319=ADVANCED_FACE('',(#59,#18),#32,.T.);
#320=ADVANCED_FACE('',(#60,#19),#33,.T.);
#321=ADVANCED_FACE('',(#61,#20),#34,.T.);
#322=ADVANCED_FACE('',(#62,#21),#35,.T.);
#323=ADVANCED_FACE('',(#63),#36,.T.);
#324=CLOSED_SHELL('',(#302,#303,#304,#305,#306,#307,#308,#309,#310,#311,
#312,#313,#314,#315,#316,#317,#318,#319,#320,#321,#322,#323));
#325=DERIVED_UNIT_ELEMENT(#328,1.);
#326=DERIVED_UNIT_ELEMENT(#575,-3.);
#327=DIMENSIONAL_EXPONENTS(0.,1.,0.,0.,0.,0.,0.);
#328=(
CONVERSION_BASED_UNIT('gram',#330)
MASS_UNIT()
NAMED_UNIT(#327)
);
#329=(
MASS_UNIT()
NAMED_UNIT(*)
SI_UNIT(.KILO.,.GRAM.)
);
#330=MASS_MEASURE_WITH_UNIT(MASS_MEASURE(0.001),#329);
#331=DERIVED_UNIT((#325,#326));
#332=MEASURE_REPRESENTATION_ITEM('density measure',
POSITIVE_RATIO_MEASURE(1.),#331);
#333=PROPERTY_DEFINITION_REPRESENTATION(#338,#335);
#334=PROPERTY_DEFINITION_REPRESENTATION(#339,#336);
#335=REPRESENTATION('material name',(#337),#572);
#336=REPRESENTATION('density',(#332),#572);
#337=DESCRIPTIVE_REPRESENTATION_ITEM('Generic','Generic');
#338=PROPERTY_DEFINITION('material property','material name',#582);
#339=PROPERTY_DEFINITION('material property','density of part',#582);
#340=DATE_TIME_ROLE('creation_date');
#341=APPLIED_DATE_AND_TIME_ASSIGNMENT(#342,#340,(#582));
#342=DATE_AND_TIME(#343,#344);
#343=CALENDAR_DATE(2026,9,3);
#344=LOCAL_TIME(9,20,49.,#345);
#345=COORDINATED_UNIVERSAL_TIME_OFFSET(0,0,.BEHIND.);
#346=AXIS2_PLACEMENT_3D('',#482,#383,#384);
#347=AXIS2_PLACEMENT_3D('',#483,#385,#386);
#348=AXIS2_PLACEMENT_3D('',#485,#387,#388);
#349=AXIS2_PLACEMENT_3D('',#488,#390,#391);
#350=AXIS2_PLACEMENT_3D('',#489,#392,#393);
#351=AXIS2_PLACEMENT_3D('',#491,#394,#395);
#352=AXIS2_PLACEMENT_3D('',#494,#397,#398);
#353=AXIS2_PLACEMENT_3D('',#495,#399,#400);
#354=AXIS2_PLACEMENT_3D('',#497,#401,#402);
#355=AXIS2_PLACEMENT_3D('',#500,#404,#405);
#356=AXIS2_PLACEMENT_3D('',#501,#406,#407);
#357=AXIS2_PLACEMENT_3D('',#503,#408,#409);
#358=AXIS2_PLACEMENT_3D('',#506,#411,#412);
#359=AXIS2_PLACEMENT_3D('',#507,#413,#414);
#360=AXIS2_PLACEMENT_3D('',#509,#415,#416);
#361=AXIS2_PLACEMENT_3D('',#512,#418,#419);
#362=AXIS2_PLACEMENT_3D('',#513,#420,#421);
#363=AXIS2_PLACEMENT_3D('',#515,#422,#423);
#364=AXIS2_PLACEMENT_3D('',#518,#425,#426);
#365=AXIS2_PLACEMENT_3D('',#519,#427,#428);
#366=AXIS2_PLACEMENT_3D('',#521,#429,#430);
#367=AXIS2_PLACEMENT_3D('',#524,#432,#433);
#368=AXIS2_PLACEMENT_3D('',#525,#434,#435);
#369=AXIS2_PLACEMENT_3D('',#538,#442,#443);
#370=AXIS2_PLACEMENT_3D('',#544,#447,#448);
#371=AXIS2_PLACEMENT_3D('',#548,#451,#452);
#372=AXIS2_PLACEMENT_3D('',#552,#455,#456);
#373=AXIS2_PLACEMENT_3D('',#556,#459,#460);
#374=AXIS2_PLACEMENT_3D('',#560,#463,#464);
#375=AXIS2_PLACEMENT_3D('',#562,#466,#467);
#376=AXIS2_PLACEMENT_3D('',#563,#468,#469);
#377=AXIS2_PLACEMENT_3D('',#564,#470,#471);
#378=AXIS2_PLACEMENT_3D('',#565,#472,#473);
#379=AXIS2_PLACEMENT_3D('',#566,#474,#475);
#380=AXIS2_PLACEMENT_3D('',#567,#476,#477);
#381=AXIS2_PLACEMENT_3D('',#568,#478,#479);
#382=AXIS2_PLACEMENT_3D('',#569,#480,#481);
#383=DIRECTION('axis',(0.,0.,1.));
#384=DIRECTION('refdir',(1.,0.,0.));
#385=DIRECTION('center_axis',(0.,0.,-1.));
#386=DIRECTION('ref_axis',(0.,-1.,0.));
#387=DIRECTION('center_axis',(0.,0.,-1.));
#388=DIRECTION('ref_axis',(0.,-1.,0.));
#389=DIRECTION('',(-9.04667232142422E-18,-0.0738716855155533,0.997267754456691));
#390=DIRECTION('center_axis',(0.,0.,-1.));
#391=DIRECTION('ref_axis',(0.,-1.,0.));
#392=DIRECTION('center_axis',(0.,0.,1.));
#393=DIRECTION('ref_axis',(0.,-1.,0.));
#394=DIRECTION('center_axis',(0.,0.,-1.));
#395=DIRECTION('ref_axis',(0.,-1.,0.));
#396=DIRECTION('',(0.,0.,-1.));
#397=DIRECTION('center_axis',(0.,0.,-1.));
#398=DIRECTION('ref_axis',(0.,-1.,0.));
#399=DIRECTION('center_axis',(0.,0.,-1.));
#400=DIRECTION('ref_axis',(0.,-1.,0.));
#401=DIRECTION('center_axis',(0.,0.,-1.));
#402=DIRECTION('ref_axis',(0.,-1.,0.));
#403=DIRECTION('',(-9.04667232143138E-18,-0.0738716855156117,0.997267754456687));
#404=DIRECTION('center_axis',(0.,0.,-1.));
#405=DIRECTION('ref_axis',(0.,-1.,0.));
#406=DIRECTION('center_axis',(0.,0.,1.));
#407=DIRECTION('ref_axis',(0.,-1.,0.));
#408=DIRECTION('center_axis',(0.,0.,-1.));
#409=DIRECTION('ref_axis',(0.,-1.,0.));
#410=DIRECTION('',(0.,0.,-1.));
#411=DIRECTION('center_axis',(0.,0.,-1.));
#412=DIRECTION('ref_axis',(0.,-1.,0.));
#413=DIRECTION('center_axis',(0.,0.,1.));
#414=DIRECTION('ref_axis',(0.,-1.,0.));
#415=DIRECTION('center_axis',(0.,0.,-1.));
#416=DIRECTION('ref_axis',(0.,-1.,0.));
#417=DIRECTION('',(0.,0.,-1.));
#418=DIRECTION('center_axis',(0.,0.,-1.));
#419=DIRECTION('ref_axis',(0.,-1.,0.));
#420=DIRECTION('center_axis',(0.,0.,1.));
#421=DIRECTION('ref_axis',(0.,-1.,0.));
#422=DIRECTION('center_axis',(0.,0.,-1.));
#423=DIRECTION('ref_axis',(0.,-1.,0.));
#424=DIRECTION('',(0.,0.,-1.));
#425=DIRECTION('center_axis',(6.12323399573677E-17,0.,1.));
#426=DIRECTION('ref_axis',(0.,-1.,0.));
#427=DIRECTION('center_axis',(0.,0.,1.));
#428=DIRECTION('ref_axis',(0.,-1.,0.));
#429=DIRECTION('center_axis',(0.,0.,-1.));
#430=DIRECTION('ref_axis',(0.,-1.,0.));
#431=DIRECTION('',(0.,0.,-1.));
#432=DIRECTION('center_axis',(0.,0.,-1.));
#433=DIRECTION('ref_axis',(0.,-1.,0.));
#434=DIRECTION('center_axis',(6.12323399573677E-17,0.,1.));
#435=DIRECTION('ref_axis',(1.,0.,-6.12323399573677E-17));
#436=DIRECTION('',(0.866025403784439,0.499999999999999,-5.30287619362454E-17));
#437=DIRECTION('',(-9.46689322527291E-16,1.,5.79680024310012E-32));
#438=DIRECTION('',(-0.86602540378444,0.499999999999997,5.30287619362455E-17));
#439=DIRECTION('',(-0.866025403784439,-0.5,5.30287619362453E-17));
#440=DIRECTION('',(0.,-1.,0.));
#441=DIRECTION('',(0.866025403784439,-0.499999999999999,-5.30287619362454E-17));
#442=DIRECTION('center_axis',(-1.,-9.46689322527291E-16,6.12323399573677E-17));
#443=DIRECTION('ref_axis',(-9.46689322527291E-16,1.,0.));
#444=DIRECTION('',(-9.46689322527291E-16,1.,-1.49587944370547E-16));
#445=DIRECTION('',(-6.12323399573677E-17,0.,-1.));
#446=DIRECTION('',(-6.12323399573677E-17,0.,-1.));
#447=DIRECTION('center_axis',(-0.499999999999997,-0.866025403784441,3.06161699786836E-17));
#448=DIRECTION('ref_axis',(-0.866025403784441,0.499999999999997,0.));
#449=DIRECTION('',(-0.86602540378444,0.499999999999997,-7.47939721852731E-17));
#450=DIRECTION('',(-6.12323399573677E-17,0.,-1.));
#451=DIRECTION('center_axis',(0.5,-0.866025403784439,-3.06161699786838E-17));
#452=DIRECTION('ref_axis',(-1.84889274661175E-32,3.53525079574968E-17,-1.));
#453=DIRECTION('',(-0.866025403784439,-0.5,7.47939721852737E-17));
#454=DIRECTION('',(-6.12323399573677E-17,0.,-1.));
#455=DIRECTION('center_axis',(1.,0.,-6.12323399573677E-17));
#456=DIRECTION('ref_axis',(-6.12323399573677E-17,0.,-1.));
#457=DIRECTION('',(9.15961986322117E-33,-1.,1.49587944370547E-16));
#458=DIRECTION('',(-6.12323399573677E-17,0.,-1.));
#459=DIRECTION('center_axis',(0.499999999999999,0.866025403784439,-3.06161699786838E-17));
#460=DIRECTION('ref_axis',(-6.12323399573677E-17,-9.24446373305873E-33,
-1.));
#461=DIRECTION('',(0.866025403784439,-0.499999999999999,7.47939721852736E-17));
#462=DIRECTION('',(-6.12323399573677E-17,0.,-1.));
#463=DIRECTION('center_axis',(-0.499999999999999,0.866025403784439,3.06161699786838E-17));
#464=DIRECTION('ref_axis',(6.12323399573677E-17,-9.24446373305873E-33,1.));
#465=DIRECTION('',(0.866025403784439,0.499999999999999,-7.47939721852736E-17));
#466=DIRECTION('center_axis',(0.,1.49587944370547E-16,1.));
#467=DIRECTION('ref_axis',(0.,-1.,1.49587944370547E-16));
#468=DIRECTION('center_axis',(0.,1.49587944370547E-16,1.));
#469=DIRECTION('ref_axis',(0.,-1.,1.49587944370547E-16));
#470=DIRECTION('center_axis',(0.,1.49587944370547E-16,1.));
#471=DIRECTION('ref_axis',(0.,-1.,1.49587944370547E-16));
#472=DIRECTION('center_axis',(0.,-1.49587944370547E-16,-1.));
#473=DIRECTION('ref_axis',(0.,-1.,1.49587944370547E-16));
#474=DIRECTION('center_axis',(0.,-1.49587944370547E-16,-1.));
#475=DIRECTION('ref_axis',(0.,-1.,1.49587944370547E-16));
#476=DIRECTION('center_axis',(0.,1.49587944370547E-16,1.));
#477=DIRECTION('ref_axis',(0.,-1.,1.49587944370547E-16));
#478=DIRECTION('center_axis',(0.,-1.49587944370547E-16,-1.));
#479=DIRECTION('ref_axis',(0.,-1.,1.49587944370547E-16));
#480=DIRECTION('center_axis',(0.,-1.49587944370547E-16,-1.));
#481=DIRECTION('ref_axis',(0.,-1.,1.49587944370547E-16));
#482=CARTESIAN_POINT('',(0.,0.,0.));
#483=CARTESIAN_POINT('Origin',(0.,-4.2632564145606E-14,-77.1));
#484=CARTESIAN_POINT('',(4.89858719658941E-16,3.99999999999996,-80.6));
#485=CARTESIAN_POINT('Origin',(0.,-4.2632564145606E-14,-80.6));
#486=CARTESIAN_POINT('',(4.26358515258707E-16,3.48148148148143,-73.6));
#487=CARTESIAN_POINT('',(4.58108617458823E-16,3.74074074074069,-77.1));
#488=CARTESIAN_POINT('Origin',(0.,-4.2632564145606E-14,-73.6));
#489=CARTESIAN_POINT('Origin',(0.,-4.2632564145606E-14,-70.85));
#490=CARTESIAN_POINT('',(5.20474889637625E-16,4.24999999999996,-68.1));
#491=CARTESIAN_POINT('Origin',(0.,-4.2632564145606E-14,-68.1));
#492=CARTESIAN_POINT('',(5.20474889637625E-16,4.24999999999996,-73.5999999999999));
#493=CARTESIAN_POINT('',(-5.20474889637625E-16,4.24999999999996,-70.85));
#494=CARTESIAN_POINT('Origin',(0.,-4.2632564145606E-14,-73.5999999999999));
#495=CARTESIAN_POINT('Origin',(0.,-4.2632564145606E-14,-67.6));
#496=CARTESIAN_POINT('',(3.76465497515675E-16,3.07407407407409,-68.1));
#497=CARTESIAN_POINT('Origin',(0.,-4.2632564145606E-14,-68.1));
#498=CARTESIAN_POINT('',(3.67394039744206E-16,2.99999999999996,-67.1));
#499=CARTESIAN_POINT('',(3.71929768629941E-16,3.03703703703703,-67.6));
#500=CARTESIAN_POINT('Origin',(0.,-4.2632564145606E-14,-67.1));
#501=CARTESIAN_POINT('Origin',(0.,-3.5527136788005E-14,-33.55));
#502=CARTESIAN_POINT('',(4.89858719658942E-16,3.99999999999997,0.));
#503=CARTESIAN_POINT('Origin',(0.,-2.8421709430404E-14,0.));
#504=CARTESIAN_POINT('',(4.8985871965894E-16,3.99999999999996,-67.1));
#505=CARTESIAN_POINT('',(-4.89858719658941E-16,3.99999999999996,-33.55));
#506=CARTESIAN_POINT('Origin',(0.,-4.2632564145606E-14,-67.1));
#507=CARTESIAN_POINT('Origin',(0.,-2.8421709430404E-14,0.80000000000001));
#508=CARTESIAN_POINT('',(1.10218211923262E-15,8.99999999999997,1.60000000000002));
#509=CARTESIAN_POINT('Origin',(0.,-2.8421709430404E-14,1.60000000000002));
#510=CARTESIAN_POINT('',(1.10218211923262E-15,8.99999999999997,-1.77635683940025E-15));
#511=CARTESIAN_POINT('',(-1.10218211923262E-15,8.99999999999997,0.80000000000001));
#512=CARTESIAN_POINT('Origin',(0.,-2.8421709430404E-14,-1.77635683940025E-15));
#513=CARTESIAN_POINT('Origin',(0.,-2.8421709430404E-14,6.5));
#514=CARTESIAN_POINT('',(4.89858719658941E-16,3.99999999999997,11.4));
#515=CARTESIAN_POINT('Origin',(0.,-2.8421709430404E-14,11.4));
#516=CARTESIAN_POINT('',(-4.89858719658941E-16,3.99999999999997,7.90000000000003));
#517=CARTESIAN_POINT('',(-4.89858719658941E-16,3.99999999999997,6.5));
#518=CARTESIAN_POINT('Origin',(0.,-2.8421709430404E-14,7.90000000000003));
#519=CARTESIAN_POINT('Origin',(0.,-2.8421709430404E-14,12.9));
#520=CARTESIAN_POINT('',(3.36777869765522E-16,2.74999999999997,14.4));
#521=CARTESIAN_POINT('Origin',(0.,-2.8421709430404E-14,14.4));
#522=CARTESIAN_POINT('',(3.36777869765522E-16,2.74999999999997,11.4));
#523=CARTESIAN_POINT('',(-3.36777869765522E-16,2.74999999999997,12.9));
#524=CARTESIAN_POINT('Origin',(0.,-2.8421709430404E-14,11.4));
#525=CARTESIAN_POINT('Origin',(8.88178419700125E-16,-2.8421709430404E-14,
7.90000000000003));
#526=CARTESIAN_POINT('',(-6.5,3.75277674973253,7.90000000000003));
#527=CARTESIAN_POINT('',(8.88178419700125E-16,7.5055534994651,7.90000000000003));
#528=CARTESIAN_POINT('',(-6.5,3.75277674973253,7.90000000000003));
#529=CARTESIAN_POINT('',(-6.49999999999999,-3.75277674973262,7.90000000000003));
#530=CARTESIAN_POINT('',(-6.49999999999999,-3.75277674973262,7.90000000000003));
#531=CARTESIAN_POINT('',(7.99360577730113E-15,-7.50555349946515,7.90000000000003));
#532=CARTESIAN_POINT('',(7.99360577730113E-15,-7.50555349946515,7.90000000000003));
#533=CARTESIAN_POINT('',(6.5,-3.75277674973259,7.90000000000003));
#534=CARTESIAN_POINT('',(6.5,-3.75277674973259,7.90000000000003));
#535=CARTESIAN_POINT('',(6.5,3.75277674973253,7.90000000000003));
#536=CARTESIAN_POINT('',(6.5,3.75277674973253,7.90000000000003));
#537=CARTESIAN_POINT('',(8.88178419700125E-16,7.5055534994651,7.90000000000003));
#538=CARTESIAN_POINT('Origin',(-6.5,3.75277674973253,7.90000000000003));
#539=CARTESIAN_POINT('',(-6.49999999999999,-3.75277674973262,1.60000000000002));
#540=CARTESIAN_POINT('',(-6.5,3.75277674973253,1.60000000000002));
#541=CARTESIAN_POINT('',(-6.5,-1.37361162513375,1.60000000000002));
#542=CARTESIAN_POINT('',(-6.49999999999999,-3.75277674973262,7.90000000000003));
#543=CARTESIAN_POINT('',(-6.5,3.75277674973253,7.90000000000003));
#544=CARTESIAN_POINT('Origin',(-6.49999999999999,-3.75277674973262,7.90000000000003));
#545=CARTESIAN_POINT('',(7.99360577730113E-15,-7.50555349946515,1.60000000000002));
#546=CARTESIAN_POINT('',(-3.46770871885028,-5.50347093716575,1.60000000000002));
#547=CARTESIAN_POINT('',(7.99360577730113E-15,-7.50555349946515,7.90000000000003));
#548=CARTESIAN_POINT('Origin',(7.99360577730113E-15,-7.50555349946515,7.90000000000003));
#549=CARTESIAN_POINT('',(6.5,-3.75277674973259,1.60000000000002));
#550=CARTESIAN_POINT('',(0.217708718850289,-7.37985931203201,1.60000000000002));
#551=CARTESIAN_POINT('',(6.5,-3.75277674973259,7.90000000000003));
#552=CARTESIAN_POINT('Origin',(6.5,-3.75277674973259,7.90000000000003));
#553=CARTESIAN_POINT('',(6.5,3.75277674973253,1.60000000000002));
#554=CARTESIAN_POINT('',(6.5,-5.12638837486631,1.60000000000002));
#555=CARTESIAN_POINT('',(6.5,3.75277674973253,7.90000000000003));
#556=CARTESIAN_POINT('Origin',(6.5,3.75277674973253,7.90000000000003));
#557=CARTESIAN_POINT('',(8.88178419700125E-16,7.5055534994651,1.60000000000002));
#558=CARTESIAN_POINT('',(6.28229128114971,3.87847093716568,1.60000000000002));
#559=CARTESIAN_POINT('',(8.88178419700125E-16,7.5055534994651,7.90000000000003));
#560=CARTESIAN_POINT('Origin',(8.88178419700125E-16,7.5055534994651,7.90000000000003));
#561=CARTESIAN_POINT('',(-3.03229128114971,5.75485931203196,1.60000000000002));
#562=CARTESIAN_POINT('Origin',(0.,-1.37500000000003,14.4));
#563=CARTESIAN_POINT('Origin',(0.,-3.37500000000003,11.4));
#564=CARTESIAN_POINT('Origin',(0.,-6.50000000000003,1.60000000000002));
#565=CARTESIAN_POINT('Origin',(0.,-6.50000000000003,0.));
#566=CARTESIAN_POINT('Origin',(0.,-3.50000000000004,-67.1));
#567=CARTESIAN_POINT('Origin',(0.,-3.66203703703711,-68.1));
#568=CARTESIAN_POINT('Origin',(0.,-3.86574074074078,-73.5999999999999));
#569=CARTESIAN_POINT('Origin',(0.,-2.00000000000004,-80.6));
#570=UNCERTAINTY_MEASURE_WITH_UNIT(LENGTH_MEASURE(0.01),#574,
'DISTANCE_ACCURACY_VALUE',
'Maximum model space distance between geometric entities at asserted c
onnectivities');
#571=UNCERTAINTY_MEASURE_WITH_UNIT(LENGTH_MEASURE(0.01),#574,
'DISTANCE_ACCURACY_VALUE',
'Maximum model space distance between geometric entities at asserted c
onnectivities');
#572=(
GEOMETRIC_REPRESENTATION_CONTEXT(3)
GLOBAL_UNCERTAINTY_ASSIGNED_CONTEXT((#570))
GLOBAL_UNIT_ASSIGNED_CONTEXT((#574,#576,#577))
REPRESENTATION_CONTEXT('','3D')
);
#573=(
GEOMETRIC_REPRESENTATION_CONTEXT(3)
GLOBAL_UNCERTAINTY_ASSIGNED_CONTEXT((#571))
GLOBAL_UNIT_ASSIGNED_CONTEXT((#574,#576,#577))
REPRESENTATION_CONTEXT('','3D')
);
#574=(
LENGTH_UNIT()
NAMED_UNIT(*)
SI_UNIT(.MILLI.,.METRE.)
);
#575=(
LENGTH_UNIT()
NAMED_UNIT(*)
SI_UNIT(.CENTI.,.METRE.)
);
#576=(
NAMED_UNIT(*)
PLANE_ANGLE_UNIT()
SI_UNIT($,.RADIAN.)
);
#577=(
NAMED_UNIT(*)
SI_UNIT($,.STERADIAN.)
SOLID_ANGLE_UNIT()
);
#578=SHAPE_DEFINITION_REPRESENTATION(#579,#580);
#579=PRODUCT_DEFINITION_SHAPE('',$,#582);
#580=SHAPE_REPRESENTATION('',(#346),#572);
#581=PRODUCT_DEFINITION_CONTEXT('part definition',#586,'design');
#582=PRODUCT_DEFINITION('3842540668','3842540668',#583,#581);
#583=PRODUCT_DEFINITION_FORMATION('',$,#588);
#584=PRODUCT_RELATED_PRODUCT_CATEGORY('3842540668','3842540668',(#588));
#585=APPLICATION_PROTOCOL_DEFINITION('international standard',
'automotive_design',2009,#586);
#586=APPLICATION_CONTEXT(
'Core Data for Automotive Mechanical Design Process');
#587=PRODUCT_CONTEXT('part definition',#586,'mechanical');
#588=PRODUCT('3842540668','3842540668','FLOOR DOWEL',(#587));
#589=PRESENTATION_STYLE_ASSIGNMENT((#590));
#590=SURFACE_STYLE_USAGE(.BOTH.,#593);
#591=SURFACE_STYLE_RENDERING_WITH_PROPERTIES($,#597,(#592));
#592=SURFACE_STYLE_TRANSPARENT(0.);
#593=SURFACE_SIDE_STYLE('',(#594,#591));
#594=SURFACE_STYLE_FILL_AREA(#595);
#595=FILL_AREA_STYLE('',(#596));
#596=FILL_AREA_STYLE_COLOUR('',#597);
#597=COLOUR_RGB('',0.749019607843137,0.749019607843137,0.749019607843137);
ENDSEC;
END-ISO-10303-21;
