ISO-10303-21;
HEADER;
FILE_DESCRIPTION (( 'STEP AP203' ),
    '1' );
FILE_NAME ('3_842_510_078_Bosch.step',
    '2024-06-10T06:16:02',
    ( '' ),
    ( '' ),
    'SwSTEP 2.0',
    'SolidWorks 2014',
    '' );
FILE_SCHEMA (( 'CONFIG_CONTROL_DESIGN' ));
ENDSEC;

DATA;
#1 = CALENDAR_DATE ( 2024, 10, 6 ) ;
#2 = VERTEX_POINT ( 'NONE', #77 ) ;
#3 = DIRECTION ( 'NONE',  ( 0.0000000000000000000, -1.000000000000000000, 0.0000000000000000000 ) ) ;
#4 = DIRECTION ( 'NONE',  ( -1.000000000000000000, 0.0000000000000000000, 0.0000000000000000000 ) ) ;
#5 = APPROVAL ( #191, 'UNSPECIFIED' ) ;
#6 = DIRECTION ( 'NONE',  ( 0.0000000000000000000, -0.7071067811865480200, -0.7071067811865470200 ) ) ;
#7 = DIRECTION ( 'NONE',  ( 0.0000000000000000000, 0.0000000000000000000, 1.000000000000000000 ) ) ;
#8 = ORIENTED_EDGE ( 'NONE', *, *, #218, .F. ) ;
#9 = CARTESIAN_POINT ( 'NONE',  ( 0.0000000000000000000, 2.000000000000000000, -4.000000000000000000 ) ) ;
#10 = LINE ( 'NONE', #220, #161 ) ;
#11 = APPROVAL_PERSON_ORGANIZATION ( #197, #50, #14 ) ;
#12 = VERTEX_POINT ( 'NONE', #51 ) ;
#13 = DIRECTION ( 'NONE',  ( 0.0000000000000000000, 0.0000000000000000000, 1.000000000000000000 ) ) ;
#14 = APPROVAL_ROLE ( '' ) ;
#15 = ORIENTED_EDGE ( 'NONE', *, *, #409, .T. ) ;
#16 = CARTESIAN_POINT ( 'NONE',  ( 0.0000000000000000000, 2.772695000000000000E-015, 8.000000000000000000 ) ) ;
#17 = EDGE_CURVE ( 'NONE', #209, #2, #163, .T. ) ;
#18 = APPROVAL ( #157, 'UNSPECIFIED' ) ;
#19 = VECTOR ( 'NONE', #345, 1000.000000000000000 ) ;
#20 = ORIENTED_EDGE ( 'NONE', *, *, #192, .T. ) ;
#21 = PRODUCT_RELATED_PRODUCT_CATEGORY ( 'detail', '', ( #370 ) ) ;
#22 = AXIS2_PLACEMENT_3D ( 'NONE', #149, #13, #120 ) ;
#23 = CC_DESIGN_APPROVAL ( #5, ( #193 ) ) ;
#24 = CARTESIAN_POINT ( 'NONE',  ( 1000.000000000000000, -1.500000000000000000, -8.000000000000000000 ) ) ;
#25 = CC_DESIGN_PERSON_AND_ORGANIZATION_ASSIGNMENT ( #310, #414, ( #331 ) ) ;
#26 = CARTESIAN_POINT ( 'NONE',  ( 1000.000000000000000, -4.000000000000000000, 5.500000000000000000 ) ) ;
#27 = CARTESIAN_POINT ( 'NONE',  ( 0.0000000000000000000, 2.000000000000000000, 4.000000000000000000 ) ) ;
#28 = LINE ( 'NONE', #169, #334 ) ;
#29 = ORIENTED_EDGE ( 'NONE', *, *, #126, .F. ) ;
#30 = EDGE_CURVE ( 'NONE', #158, #194, #359, .T. ) ;
#31 = APPROVAL_DATE_TIME ( #124, #5 ) ;
#32 = VECTOR ( 'NONE', #240, 1000.000000000000000 ) ;
#33 = ORIENTED_EDGE ( 'NONE', *, *, #62, .F. ) ;
#34 = CC_DESIGN_DATE_AND_TIME_ASSIGNMENT ( #424, #81, ( #331 ) ) ;
#35 = DIRECTION ( 'NONE',  ( 0.0000000000000000000, -1.000000000000000000, 0.0000000000000000000 ) ) ;
#36 = CARTESIAN_POINT ( 'NONE',  ( 1000.000000000000000, 2.000000000000000000, 4.000000000000000000 ) ) ;
#37 = CARTESIAN_POINT ( 'NONE',  ( 1000.000000000000000, -1.368504999999999900E-015, -4.000000000000000000 ) ) ;
#38 = DIRECTION ( 'NONE',  ( 1.000000000000000000, 0.0000000000000000000, 0.0000000000000000000 ) ) ;
#39 = PLANE ( 'NONE',  #22 ) ;
#40 = PLANE ( 'NONE',  #341 ) ;
#41 = EDGE_CURVE ( 'NONE', #194, #212, #413, .T. ) ;
#42 = LINE ( 'NONE', #251, #195 ) ;
#43 = ORIENTED_EDGE ( 'NONE', *, *, #87, .T. ) ;
#44 = PERSON_AND_ORGANIZATION ( #210, #180 ) ;
#45 = FACE_OUTER_BOUND ( 'NONE', #339, .T. ) ;
#46 = ORIENTED_EDGE ( 'NONE', *, *, #159, .F. ) ;
#47 = AXIS2_PLACEMENT_3D ( 'NONE', #215, #405, #336 ) ;
#48 = CC_DESIGN_PERSON_AND_ORGANIZATION_ASSIGNMENT ( #74, #290, ( #193 ) ) ;
#49 =( NAMED_UNIT ( * ) SI_UNIT ( $, .STERADIAN. ) SOLID_ANGLE_UNIT ( ) );
#50 = APPROVAL ( #288, 'UNSPECIFIED' ) ;
#51 = CARTESIAN_POINT ( 'NONE',  ( 0.0000000000000000000, -1.500000000000000000, 8.000000000000000000 ) ) ;
#52 = VECTOR ( 'NONE', #261, 1000.000000000000000 ) ;
#53 = ORIENTED_EDGE ( 'NONE', *, *, #17, .F. ) ;
#54 = CALENDAR_DATE ( 2024, 10, 6 ) ;
#55 = VECTOR ( 'NONE', #304, 1000.000000000000000 ) ;
#56 = EDGE_CURVE ( 'NONE', #86, #155, #396, .T. ) ;
#57 = FACE_OUTER_BOUND ( 'NONE', #317, .T. ) ;
#58 = CARTESIAN_POINT ( 'NONE',  ( 1000.000000000000000, -4.000000000000000000, -5.500000000000000000 ) ) ;
#59 = PLANE ( 'NONE',  #316 ) ;
#60 = ORIENTED_EDGE ( 'NONE', *, *, #126, .T. ) ;
#61 = UNCERTAINTY_MEASURE_WITH_UNIT (LENGTH_MEASURE( 1.000000000000000100E-005 ), #116, 'distance_accuracy_value', 'NONE');
#62 = EDGE_CURVE ( 'NONE', #397, #324, #229, .T. ) ;
#63 = DIRECTION ( 'NONE',  ( 1.000000000000000000, 0.0000000000000000000, 0.0000000000000000000 ) ) ;
#64 = PLANE ( 'NONE',  #358 ) ;
#65 = CC_DESIGN_SECURITY_CLASSIFICATION ( #331, ( #236 ) ) ;
#66 = LINE ( 'NONE', #250, #432 ) ;
#67 = ORIENTED_EDGE ( 'NONE', *, *, #41, .F. ) ;
#68 = ORIENTED_EDGE ( 'NONE', *, *, #146, .T. ) ;
#69 = DIRECTION ( 'NONE',  ( 0.0000000000000000000, 0.7071067811865480200, 0.7071067811865470200 ) ) ;
#70 = CARTESIAN_POINT ( 'NONE',  ( 1000.000000000000000, 2.000000000000000000, 4.000000000000000000 ) ) ;
#71 = EDGE_CURVE ( 'NONE', #326, #12, #308, .T. ) ;
#72 = ORIENTED_EDGE ( 'NONE', *, *, #192, .F. ) ;
#73 = DIRECTION ( 'NONE',  ( 1.000000000000000000, 0.0000000000000000000, 0.0000000000000000000 ) ) ;
#74 = PERSON_AND_ORGANIZATION ( #210, #180 ) ;
#75 = VERTEX_POINT ( 'NONE', #376 ) ;
#76 = EDGE_LOOP ( 'NONE', ( #60, #344, #199, #68 ) ) ;
#77 = CARTESIAN_POINT ( 'NONE',  ( 1000.000000000000000, 1.172630000000000100E-015, 4.000000000000000000 ) ) ;
#78 = LINE ( 'NONE', #201, #211 ) ;
#79 = VERTEX_POINT ( 'NONE', #363 ) ;
#80 = DIRECTION ( 'NONE',  ( 1.000000000000000000, 0.0000000000000000000, 0.0000000000000000000 ) ) ;
#81 = DATE_TIME_ROLE ( 'classification_date' ) ;
#82 = VERTEX_POINT ( 'NONE', #166 ) ;
#83 = APPLICATION_CONTEXT ( 'configuration controlled 3d designs of mechanical parts and assemblies' ) ;
#84 = CARTESIAN_POINT ( 'NONE',  ( 1000.000000000000000, 2.772695000000000000E-015, 8.000000000000000000 ) ) ;
#85 = PERSON_AND_ORGANIZATION ( #210, #180 ) ;
#86 = VERTEX_POINT ( 'NONE', #202 ) ;
#87 = EDGE_CURVE ( 'NONE', #384, #134, #319, .T. ) ;
#88 = LINE ( 'NONE', #280, #312 ) ;
#89 = CC_DESIGN_PERSON_AND_ORGANIZATION_ASSIGNMENT ( #44, #416, ( #236 ) ) ;
#90 = ORIENTED_EDGE ( 'NONE', *, *, #394, .F. ) ;
#91 = ORIENTED_EDGE ( 'NONE', *, *, #159, .T. ) ;
#92 = APPROVAL_DATE_TIME ( #144, #50 ) ;
#93 = EDGE_LOOP ( 'NONE', ( #270, #114, #362, #15 ) ) ;
#94 = EDGE_CURVE ( 'NONE', #212, #408, #390, .T. ) ;
#95 = CC_DESIGN_DATE_AND_TIME_ASSIGNMENT ( #262, #117, ( #193 ) ) ;
#96 = LOCAL_TIME ( 8, 16, 2.000000000000000000, #254 ) ;
#97 = ORIENTED_EDGE ( 'NONE', *, *, #87, .F. ) ;
#98 = DIRECTION ( 'NONE',  ( 0.0000000000000000000, -1.000000000000000000, 0.0000000000000000000 ) ) ;
#99 = ADVANCED_FACE ( 'NONE', ( #221 ), #59, .T. ) ;
#100 = CARTESIAN_POINT ( 'NONE',  ( 0.0000000000000000000, -1.112594313153664000, 4.943168999999999800E-016 ) ) ;
#101 = FACE_OUTER_BOUND ( 'NONE', #76, .T. ) ;
#102 = ADVANCED_FACE ( 'NONE', ( #381 ), #235, .T. ) ;
#103 = DIRECTION ( 'NONE',  ( 0.0000000000000000000, 0.7071067811865470200, -0.7071067811865480200 ) ) ;
#104 = ORIENTED_EDGE ( 'NONE', *, *, #352, .F. ) ;
#105 = PLANE ( 'NONE',  #184 ) ;
#106 = CARTESIAN_POINT ( 'NONE',  ( 0.0000000000000000000, 1.172630000000000100E-015, 4.000000000000000000 ) ) ;
#107 = ORIENTED_EDGE ( 'NONE', *, *, #94, .T. ) ;
#108 = CARTESIAN_POINT ( 'NONE',  ( 1000.000000000000000, 2.000000000000000000, 4.000000000000000000 ) ) ;
#109 = CARTESIAN_POINT ( 'NONE',  ( 1000.000000000000000, -1.500000000000000000, 8.000000000000000000 ) ) ;
#110 = EDGE_CURVE ( 'NONE', #324, #82, #293, .T. ) ;
#111 = PRODUCT_DEFINITION_SHAPE ( 'NONE', 'NONE',  #193 ) ;
#112 = FACE_OUTER_BOUND ( 'NONE', #260, .T. ) ;
#113 = LINE ( 'NONE', #142, #392 ) ;
#114 = ORIENTED_EDGE ( 'NONE', *, *, #281, .F. ) ;
#115 = CARTESIAN_POINT ( 'NONE',  ( 1000.000000000000000, 2.000000000000000000, -4.000000000000000000 ) ) ;
#116 =( LENGTH_UNIT ( ) NAMED_UNIT ( * ) SI_UNIT ( .MILLI., .METRE. ) );
#117 = DATE_TIME_ROLE ( 'creation_date' ) ;
#118 = AXIS2_PLACEMENT_3D ( 'NONE', #24, #167, #98 ) ;
#119 = CARTESIAN_POINT ( 'NONE',  ( 0.0000000000000000000, -1.500000000000000000, -8.000000000000000000 ) ) ;
#120 = DIRECTION ( 'NONE',  ( 1.000000000000000000, 0.0000000000000000000, 0.0000000000000000000 ) ) ;
#121 = CARTESIAN_POINT ( 'NONE',  ( 0.0000000000000000000, -1.500000000000000000, -8.000000000000000000 ) ) ;
#122 = VECTOR ( 'NONE', #395, 1000.000000000000000 ) ;
#123 = ORIENTED_EDGE ( 'NONE', *, *, #196, .T. ) ;
#124 = DATE_AND_TIME ( #428, #96 ) ;
#125 = MANIFOLD_SOLID_BREP ( 'Imported1', #252 ) ;
#126 = EDGE_CURVE ( 'NONE', #168, #82, #28, .T. ) ;
#127 = LINE ( 'NONE', #277, #238 ) ;
#128 = EDGE_LOOP ( 'NONE', ( #417, #273, #391, #91 ) ) ;
#129 = DIRECTION ( 'NONE',  ( 0.0000000000000000000, 1.000000000000000000, 0.0000000000000000000 ) ) ;
#130 = EDGE_CURVE ( 'NONE', #2, #384, #78, .T. ) ;
#131 = DIRECTION ( 'NONE',  ( -1.000000000000000000, 0.0000000000000000000, 0.0000000000000000000 ) ) ;
#132 = ADVANCED_FACE ( 'NONE', ( #383 ), #431, .F. ) ;
#133 = VECTOR ( 'NONE', #227, 1000.000000000000000 ) ;
#134 = VERTEX_POINT ( 'NONE', #27 ) ;
#135 = PERSON_AND_ORGANIZATION ( #210, #180 ) ;
#136 = FACE_OUTER_BOUND ( 'NONE', #128, .T. ) ;
#137 = ADVANCED_FACE ( 'NONE', ( #45 ), #64, .T. ) ;
#138 = VECTOR ( 'NONE', #373, 1000.000000000000000 ) ;
#139 = CARTESIAN_POINT ( 'NONE',  ( 1000.000000000000000, 2.772695000000000000E-015, 8.000000000000000000 ) ) ;
#140 = ORIENTED_EDGE ( 'NONE', *, *, #255, .T. ) ;
#141 = CARTESIAN_POINT ( 'NONE',  ( 1000.000000000000000, -2.936850000000000400E-015, -8.000000000000000000 ) ) ;
#142 = CARTESIAN_POINT ( 'NONE',  ( 1000.000000000000000, -1.500000000000000000, 8.000000000000000000 ) ) ;
#143 = CARTESIAN_POINT ( 'NONE',  ( 1000.000000000000000, -1.500000000000000000, 8.000000000000000000 ) ) ;
#144 = DATE_AND_TIME ( #276, #189 ) ;
#145 = CARTESIAN_POINT ( 'NONE',  ( 1000.000000000000000, 2.000000000000000000, -4.000000000000000000 ) ) ;
#146 = EDGE_CURVE ( 'NONE', #75, #168, #232, .T. ) ;
#147 = DIRECTION ( 'NONE',  ( 0.0000000000000000000, -1.000000000000000000, 0.0000000000000000000 ) ) ;
#148 = ORIENTED_EDGE ( 'NONE', *, *, #41, .T. ) ;
#149 = CARTESIAN_POINT ( 'NONE',  ( 1000.000000000000000, 2.772695000000000000E-015, 8.000000000000000000 ) ) ;
#150 = VECTOR ( 'NONE', #418, 1000.000000000000000 ) ;
#151 = EDGE_LOOP ( 'NONE', ( #274, #267, #283, #320 ) ) ;
#152 = COORDINATED_UNIVERSAL_TIME_OFFSET ( 1, 0, .AHEAD. ) ;
#153 = LINE ( 'NONE', #369, #55 ) ;
#154 = FACE_OUTER_BOUND ( 'NONE', #421, .T. ) ;
#155 = VERTEX_POINT ( 'NONE', #200 ) ;
#156 = CARTESIAN_POINT ( 'NONE',  ( 0.0000000000000000000, 0.0000000000000000000, 0.0000000000000000000 ) ) ;
#157 = APPROVAL_STATUS ( 'not_yet_approved' ) ;
#158 = VERTEX_POINT ( 'NONE', #119 ) ;
#159 = EDGE_CURVE ( 'NONE', #209, #326, #153, .T. ) ;
#160 = LOCAL_TIME ( 8, 16, 2.000000000000000000, #343 ) ;
#161 = VECTOR ( 'NONE', #342, 1000.000000000000000 ) ;
#162 = ORIENTED_EDGE ( 'NONE', *, *, #255, .F. ) ;
#163 = LINE ( 'NONE', #84, #347 ) ;
#164 = DIRECTION ( 'NONE',  ( -0.0000000000000000000, 1.000000000000000000, 0.0000000000000000000 ) ) ;
#165 = EDGE_LOOP ( 'NONE', ( #107, #371, #222, #302 ) ) ;
#166 = CARTESIAN_POINT ( 'NONE',  ( 0.0000000000000000000, -4.000000000000000000, -5.500000000000000000 ) ) ;
#167 = DIRECTION ( 'NONE',  ( 0.0000000000000000000, 0.0000000000000000000, -1.000000000000000000 ) ) ;
#168 = VERTEX_POINT ( 'NONE', #337 ) ;
#169 = CARTESIAN_POINT ( 'NONE',  ( 0.0000000000000000000, -4.000000000000000000, 5.500000000000000000 ) ) ;
#170 = LINE ( 'NONE', #141, #346 ) ;
#171 = VECTOR ( 'NONE', #318, 1000.000000000000000 ) ;
#172 = ORIENTED_EDGE ( 'NONE', *, *, #281, .T. ) ;
#173 = CARTESIAN_POINT ( 'NONE',  ( 0.0000000000000000000, -1.500000000000000000, 8.000000000000000000 ) ) ;
#174 = DIRECTION ( 'NONE',  ( -1.000000000000000000, 0.0000000000000000000, 0.0000000000000000000 ) ) ;
#175 = DIRECTION ( 'NONE',  ( 0.0000000000000000000, 0.0000000000000000000, -1.000000000000000000 ) ) ;
#176 = DIRECTION ( 'NONE',  ( 0.0000000000000000000, 0.7071067811865470200, -0.7071067811865480200 ) ) ;
#177 = ORIENTED_EDGE ( 'NONE', *, *, #245, .T. ) ;
#178 = CARTESIAN_POINT ( 'NONE',  ( 1000.000000000000000, 1.172630000000000100E-015, 4.000000000000000000 ) ) ;
#179 = CARTESIAN_POINT ( 'NONE',  ( 1000.000000000000000, -1.500000000000000000, -8.000000000000000000 ) ) ;
#180 = ORGANIZATION ( 'UNSPECIFIED', 'UNSPECIFIED', '' ) ;
#181 = ORIENTED_EDGE ( 'NONE', *, *, #71, .F. ) ;
#182 = CARTESIAN_POINT ( 'NONE',  ( 1000.000000000000000, -2.936850000000000400E-015, -8.000000000000000000 ) ) ;
#183 = CARTESIAN_POINT ( 'NONE',  ( 1000.000000000000000, 2.000000000000000000, -4.000000000000000000 ) ) ;
#184 = AXIS2_PLACEMENT_3D ( 'NONE', #435, #3, #175 ) ;
#185 = CC_DESIGN_APPROVAL ( #18, ( #236 ) ) ;
#186 = LINE ( 'NONE', #183, #401 ) ;
#187 = ORIENTED_EDGE ( 'NONE', *, *, #56, .T. ) ;
#188 = APPLICATION_PROTOCOL_DEFINITION ( 'international standard', 'config_control_design', 1994, #83 ) ;
#189 = LOCAL_TIME ( 8, 16, 2.000000000000000000, #360 ) ;
#190 = ORIENTED_EDGE ( 'NONE', *, *, #130, .F. ) ;
#191 = APPROVAL_STATUS ( 'not_yet_approved' ) ;
#192 = EDGE_CURVE ( 'NONE', #12, #168, #243, .T. ) ;
#193 = PRODUCT_DEFINITION ( 'UNKNOWN', '', #236, #349 ) ;
#194 = VERTEX_POINT ( 'NONE', #213 ) ;
#195 = VECTOR ( 'NONE', #7, 1000.000000000000000 ) ;
#196 = EDGE_CURVE ( 'NONE', #79, #12, #113, .T. ) ;
#197 = PERSON_AND_ORGANIZATION ( #210, #180 ) ;
#198 = ORIENTED_EDGE ( 'NONE', *, *, #17, .T. ) ;
#199 = ORIENTED_EDGE ( 'NONE', *, *, #268, .T. ) ;
#200 = CARTESIAN_POINT ( 'NONE',  ( 1000.000000000000000, -2.936850000000000400E-015, -8.000000000000000000 ) ) ;
#201 = CARTESIAN_POINT ( 'NONE',  ( 1000.000000000000000, 1.172630000000000100E-015, 4.000000000000000000 ) ) ;
#202 = CARTESIAN_POINT ( 'NONE',  ( 1000.000000000000000, -1.368504999999999900E-015, -4.000000000000000000 ) ) ;
#203 = ADVANCED_FACE ( 'NONE', ( #311 ), #434, .T. ) ;
#204 = VECTOR ( 'NONE', #340, 1000.000000000000000 ) ;
#205 = AXIS2_PLACEMENT_3D ( 'NONE', #217, #6, #176 ) ;
#206 = DIRECTION ( 'NONE',  ( 0.0000000000000000000, 0.0000000000000000000, -1.000000000000000000 ) ) ;
#207 = CC_DESIGN_PERSON_AND_ORGANIZATION_ASSIGNMENT ( #398, #350, ( #236 ) ) ;
#208 = VECTOR ( 'NONE', #327, 1000.000000000000000 ) ;
#209 = VERTEX_POINT ( 'NONE', #139 ) ;
#210 = PERSON ( 'UNSPECIFIED', 'UNSPECIFIED', 'UNSPECIFIED', ('UNSPECIFIED'), ('UNSPECIFIED'), ('UNSPECIFIED') ) ;
#211 = VECTOR ( 'NONE', #427, 1000.000000000000000 ) ;
#212 = VERTEX_POINT ( 'NONE', #372 ) ;
#213 = CARTESIAN_POINT ( 'NONE',  ( 0.0000000000000000000, -2.936850000000000400E-015, -8.000000000000000000 ) ) ;
#214 = DIRECTION ( 'NONE',  ( 0.0000000000000000000, 0.0000000000000000000, -1.000000000000000000 ) ) ;
#215 = CARTESIAN_POINT ( 'NONE',  ( 1000.000000000000000, 2.000000000000000000, 4.000000000000000000 ) ) ;
#216 = DIRECTION ( 'NONE',  ( -0.0000000000000000000, 1.000000000000000000, 0.0000000000000000000 ) ) ;
#217 = CARTESIAN_POINT ( 'NONE',  ( 1000.000000000000000, -4.000000000000000000, -5.500000000000000000 ) ) ;
#218 = EDGE_CURVE ( 'NONE', #82, #158, #127, .T. ) ;
#219 = DIRECTION ( 'NONE',  ( 0.0000000000000000000, -0.7071067811865470200, 0.7071067811865480200 ) ) ;
#220 = CARTESIAN_POINT ( 'NONE',  ( 1000.000000000000000, 2.000000000000000000, -4.000000000000000000 ) ) ;
#221 = FACE_OUTER_BOUND ( 'NONE', #278, .T. ) ;
#222 = ORIENTED_EDGE ( 'NONE', *, *, #368, .T. ) ;
#223 = VECTOR ( 'NONE', #377, 1000.000000000000000 ) ;
#224 = EDGE_CURVE ( 'NONE', #155, #397, #296, .T. ) ;
#225 = MECHANICAL_CONTEXT ( 'NONE', #83, 'mechanical' ) ;
#226 =( NAMED_UNIT ( * ) PLANE_ANGLE_UNIT ( ) SI_UNIT ( $, .RADIAN. ) );
#227 = DIRECTION ( 'NONE',  ( 0.0000000000000000000, -0.7071067811865470200, 0.7071067811865480200 ) ) ;
#228 = EDGE_CURVE ( 'NONE', #382, #326, #42, .T. ) ;
#229 = LINE ( 'NONE', #355, #133 ) ;
#230 = ORIENTED_EDGE ( 'NONE', *, *, #368, .F. ) ;
#231 = DATE_AND_TIME ( #241, #295 ) ;
#232 = LINE ( 'NONE', #26, #32 ) ;
#233 = VECTOR ( 'NONE', #4, 1000.000000000000000 ) ;
#234 = EDGE_CURVE ( 'NONE', #433, #408, #10, .T. ) ;
#235 = PLANE ( 'NONE',  #118 ) ;
#236 = PRODUCT_DEFINITION_FORMATION_WITH_SPECIFIED_SOURCE ( 'ANY', '', #370, .NOT_KNOWN. ) ;
#237 = ORIENTED_EDGE ( 'NONE', *, *, #394, .T. ) ;
#238 = VECTOR ( 'NONE', #103, 1000.000000000000000 ) ;
#239 = EDGE_LOOP ( 'NONE', ( #333, #8, #29, #72, #181, #269, #90, #104, #257, #67 ) ) ;
#240 = DIRECTION ( 'NONE',  ( -1.000000000000000000, 0.0000000000000000000, 0.0000000000000000000 ) ) ;
#241 = CALENDAR_DATE ( 2024, 10, 6 ) ;
#242 = ADVANCED_FACE ( 'NONE', ( #357 ), #379, .T. ) ;
#243 = LINE ( 'NONE', #173, #400 ) ;
#244 = LINE ( 'NONE', #143, #366 ) ;
#245 = EDGE_CURVE ( 'NONE', #2, #382, #322, .T. ) ;
#246 = VECTOR ( 'NONE', #387, 1000.000000000000000 ) ;
#247 = ORIENTED_EDGE ( 'NONE', *, *, #224, .F. ) ;
#248 = DIRECTION ( 'NONE',  ( 0.0000000000000000000, 0.0000000000000000000, -1.000000000000000000 ) ) ;
#249 = CARTESIAN_POINT ( 'NONE',  ( 1000.000000000000000, -2.936850000000000400E-015, -8.000000000000000000 ) ) ;
#250 = CARTESIAN_POINT ( 'NONE',  ( 0.0000000000000000000, 2.000000000000000000, -4.000000000000000000 ) ) ;
#251 = CARTESIAN_POINT ( 'NONE',  ( 0.0000000000000000000, 1.172630000000000100E-015, 4.000000000000000000 ) ) ;
#252 = CLOSED_SHELL ( 'NONE', ( #102, #328, #203, #367, #298, #99, #430, #242, #271, #303, #132, #137 ) ) ;
#253 = PLANE ( 'NONE',  #205 ) ;
#254 = COORDINATED_UNIVERSAL_TIME_OFFSET ( 1, 0, .AHEAD. ) ;
#255 = EDGE_CURVE ( 'NONE', #384, #433, #412, .T. ) ;
#256 = LOCAL_TIME ( 8, 16, 2.000000000000000000, #420 ) ;
#257 = ORIENTED_EDGE ( 'NONE', *, *, #94, .F. ) ;
#258 = DIRECTION ( 'NONE',  ( 0.0000000000000000000, 0.0000000000000000000, 1.000000000000000000 ) ) ;
#259 = ADVANCED_BREP_SHAPE_REPRESENTATION ( '3_842_510_078_Bosch', ( #125, #403 ), #419 ) ;
#260 = EDGE_LOOP ( 'NONE', ( #237, #361, #425, #43 ) ) ;
#261 = DIRECTION ( 'NONE',  ( 0.0000000000000000000, -1.000000000000000000, 0.0000000000000000000 ) ) ;
#262 = DATE_AND_TIME ( #54, #160 ) ;
#263 = ORIENTED_EDGE ( 'NONE', *, *, #234, .T. ) ;
#264 = LINE ( 'NONE', #279, #138 ) ;
#265 = ORIENTED_EDGE ( 'NONE', *, *, #352, .T. ) ;
#266 = AXIS2_PLACEMENT_3D ( 'NONE', #100, #63, #329 ) ;
#267 = ORIENTED_EDGE ( 'NONE', *, *, #409, .F. ) ;
#268 = EDGE_CURVE ( 'NONE', #324, #75, #264, .T. ) ;
#269 = ORIENTED_EDGE ( 'NONE', *, *, #228, .F. ) ;
#270 = ORIENTED_EDGE ( 'NONE', *, *, #30, .T. ) ;
#271 = ADVANCED_FACE ( 'NONE', ( #101 ), #105, .T. ) ;
#272 = FACE_OUTER_BOUND ( 'NONE', #151, .T. ) ;
#273 = ORIENTED_EDGE ( 'NONE', *, *, #196, .F. ) ;
#274 = ORIENTED_EDGE ( 'NONE', *, *, #218, .T. ) ;
#275 = DIRECTION ( 'NONE',  ( 0.0000000000000000000, -0.7071067811865480200, -0.7071067811865470200 ) ) ;
#276 = CALENDAR_DATE ( 2024, 10, 6 ) ;
#277 = CARTESIAN_POINT ( 'NONE',  ( 0.0000000000000000000, -4.000000000000000000, -5.500000000000000000 ) ) ;
#278 = EDGE_LOOP ( 'NONE', ( #323, #46, #198, #177 ) ) ;
#279 = CARTESIAN_POINT ( 'NONE',  ( 1000.000000000000000, -4.000000000000000000, -5.500000000000000000 ) ) ;
#280 = CARTESIAN_POINT ( 'NONE',  ( 1000.000000000000000, -4.000000000000000000, 5.500000000000000000 ) ) ;
#281 = EDGE_CURVE ( 'NONE', #155, #194, #170, .T. ) ;
#282 = APPROVAL_DATE_TIME ( #231, #18 ) ;
#283 = ORIENTED_EDGE ( 'NONE', *, *, #62, .T. ) ;
#284 = PLANE ( 'NONE',  #47 ) ;
#285 = VECTOR ( 'NONE', #131, 1000.000000000000000 ) ;
#286 = AXIS2_PLACEMENT_3D ( 'NONE', #335, #248, #35 ) ;
#287 = ORIENTED_EDGE ( 'NONE', *, *, #375, .T. ) ;
#288 = APPROVAL_STATUS ( 'not_yet_approved' ) ;
#289 = EDGE_CURVE ( 'NONE', #79, #209, #244, .T. ) ;
#290 = PERSON_AND_ORGANIZATION_ROLE ( 'creator' ) ;
#291 = DIRECTION ( 'NONE',  ( 0.0000000000000000000, 0.0000000000000000000, -1.000000000000000000 ) ) ;
#292 = VECTOR ( 'NONE', #214, 1000.000000000000000 ) ;
#293 = LINE ( 'NONE', #58, #208 ) ;
#294 = ORIENTED_EDGE ( 'NONE', *, *, #375, .F. ) ;
#295 = LOCAL_TIME ( 8, 16, 2.000000000000000000, #152 ) ;
#296 = LINE ( 'NONE', #182, #223 ) ;
#297 = EDGE_LOOP ( 'NONE', ( #20, #348, #287, #123 ) ) ;
#298 = ADVANCED_FACE ( 'NONE', ( #112 ), #284, .T. ) ;
#299 = CARTESIAN_POINT ( 'NONE',  ( 1000.000000000000000, -1.112594313153664000, 4.943168999999999800E-016 ) ) ;
#300 = DIRECTION ( 'NONE',  ( 1.000000000000000000, 0.0000000000000000000, 0.0000000000000000000 ) ) ;
#301 = VECTOR ( 'NONE', #129, 1000.000000000000000 ) ;
#302 = ORIENTED_EDGE ( 'NONE', *, *, #388, .T. ) ;
#303 = ADVANCED_FACE ( 'NONE', ( #272 ), #253, .T. ) ;
#304 = DIRECTION ( 'NONE',  ( -1.000000000000000000, 0.0000000000000000000, 0.0000000000000000000 ) ) ;
#305 = SHAPE_DEFINITION_REPRESENTATION ( #111, #259 ) ;
#306 = CARTESIAN_POINT ( 'NONE',  ( 0.0000000000000000000, 2.772695000000000000E-015, 8.000000000000000000 ) ) ;
#307 = CARTESIAN_POINT ( 'NONE',  ( 0.0000000000000000000, 2.000000000000000000, 4.000000000000000000 ) ) ;
#308 = LINE ( 'NONE', #16, #52 ) ;
#309 = ORIENTED_EDGE ( 'NONE', *, *, #388, .F. ) ;
#310 = PERSON_AND_ORGANIZATION ( #210, #180 ) ;
#311 = FACE_OUTER_BOUND ( 'NONE', #165, .T. ) ;
#312 = VECTOR ( 'NONE', #69, 1000.000000000000000 ) ;
#313 = APPROVAL_ROLE ( '' ) ;
#314 = CARTESIAN_POINT ( 'NONE',  ( 0.0000000000000000000, -2.936850000000000400E-015, -8.000000000000000000 ) ) ;
#315 = APPLICATION_PROTOCOL_DEFINITION ( 'international standard', 'config_control_design', 1994, #385 ) ;
#316 = AXIS2_PLACEMENT_3D ( 'NONE', #325, #164, #364 ) ;
#317 = EDGE_LOOP ( 'NONE', ( #265, #97, #140, #263 ) ) ;
#318 = DIRECTION ( 'NONE',  ( 0.0000000000000000000, 1.000000000000000000, 0.0000000000000000000 ) ) ;
#319 = LINE ( 'NONE', #70, #122 ) ;
#320 = ORIENTED_EDGE ( 'NONE', *, *, #110, .T. ) ;
#321 = APPROVAL_PERSON_ORGANIZATION ( #411, #18, #313 ) ;
#322 = LINE ( 'NONE', #178, #285 ) ;
#323 = ORIENTED_EDGE ( 'NONE', *, *, #228, .T. ) ;
#324 = VERTEX_POINT ( 'NONE', #406 ) ;
#325 = CARTESIAN_POINT ( 'NONE',  ( 1000.000000000000000, 1.172630000000000100E-015, 4.000000000000000000 ) ) ;
#326 = VERTEX_POINT ( 'NONE', #306 ) ;
#327 = DIRECTION ( 'NONE',  ( -1.000000000000000000, 0.0000000000000000000, 0.0000000000000000000 ) ) ;
#328 = ADVANCED_FACE ( 'NONE', ( #154 ), #40, .T. ) ;
#329 = DIRECTION ( 'NONE',  ( 0.0000000000000000000, 1.000000000000000000, 0.0000000000000000000 ) ) ;
#330 = APPROVAL_PERSON_ORGANIZATION ( #135, #5, #354 ) ;
#331 = SECURITY_CLASSIFICATION ( '', '', #351 ) ;
#332 = LINE ( 'NONE', #37, #233 ) ;
#333 = ORIENTED_EDGE ( 'NONE', *, *, #30, .F. ) ;
#334 = VECTOR ( 'NONE', #206, 1000.000000000000000 ) ;
#335 = CARTESIAN_POINT ( 'NONE',  ( 1000.000000000000000, -1.368504999999999900E-015, -4.000000000000000000 ) ) ;
#336 = DIRECTION ( 'NONE',  ( 1.000000000000000000, 0.0000000000000000000, 0.0000000000000000000 ) ) ;
#337 = CARTESIAN_POINT ( 'NONE',  ( 0.0000000000000000000, -4.000000000000000000, 5.500000000000000000 ) ) ;
#338 = PLANE ( 'NONE',  #399 ) ;
#339 = EDGE_LOOP ( 'NONE', ( #33, #247, #422, #230, #162, #190, #53, #429, #294, #356 ) ) ;
#340 = DIRECTION ( 'NONE',  ( 0.0000000000000000000, -1.000000000000000000, 0.0000000000000000000 ) ) ;
#341 = AXIS2_PLACEMENT_3D ( 'NONE', #249, #407, #38 ) ;
#342 = DIRECTION ( 'NONE',  ( -1.000000000000000000, 0.0000000000000000000, 0.0000000000000000000 ) ) ;
#343 = COORDINATED_UNIVERSAL_TIME_OFFSET ( 1, 0, .AHEAD. ) ;
#344 = ORIENTED_EDGE ( 'NONE', *, *, #110, .F. ) ;
#345 = DIRECTION ( 'NONE',  ( -1.000000000000000000, 0.0000000000000000000, 0.0000000000000000000 ) ) ;
#346 = VECTOR ( 'NONE', #174, 1000.000000000000000 ) ;
#347 = VECTOR ( 'NONE', #291, 1000.000000000000000 ) ;
#348 = ORIENTED_EDGE ( 'NONE', *, *, #146, .F. ) ;
#349 = DESIGN_CONTEXT ( 'detailed design', #385, 'design' ) ;
#350 = PERSON_AND_ORGANIZATION_ROLE ( 'creator' ) ;
#351 = SECURITY_CLASSIFICATION_LEVEL ( 'unclassified' ) ;
#352 = EDGE_CURVE ( 'NONE', #408, #134, #66, .T. ) ;
#353 = CC_DESIGN_PERSON_AND_ORGANIZATION_ASSIGNMENT ( #85, #386, ( #370 ) ) ;
#354 = APPROVAL_ROLE ( '' ) ;
#355 = CARTESIAN_POINT ( 'NONE',  ( 1000.000000000000000, -1.500000000000000000, -8.000000000000000000 ) ) ;
#356 = ORIENTED_EDGE ( 'NONE', *, *, #268, .F. ) ;
#357 = FACE_OUTER_BOUND ( 'NONE', #297, .T. ) ;
#358 = AXIS2_PLACEMENT_3D ( 'NONE', #299, #300, #365 ) ;
#359 = LINE ( 'NONE', #121, #171 ) ;
#360 = COORDINATED_UNIVERSAL_TIME_OFFSET ( 1, 0, .AHEAD. ) ;
#361 = ORIENTED_EDGE ( 'NONE', *, *, #245, .F. ) ;
#362 = ORIENTED_EDGE ( 'NONE', *, *, #224, .T. ) ;
#363 = CARTESIAN_POINT ( 'NONE',  ( 1000.000000000000000, -1.500000000000000000, 8.000000000000000000 ) ) ;
#364 = DIRECTION ( 'NONE',  ( 1.000000000000000000, 0.0000000000000000000, 0.0000000000000000000 ) ) ;
#365 = DIRECTION ( 'NONE',  ( 0.0000000000000000000, 1.000000000000000000, 0.0000000000000000000 ) ) ;
#366 = VECTOR ( 'NONE', #404, 1000.000000000000000 ) ;
#367 = ADVANCED_FACE ( 'NONE', ( #57 ), #338, .T. ) ;
#368 = EDGE_CURVE ( 'NONE', #433, #86, #186, .T. ) ;
#369 = CARTESIAN_POINT ( 'NONE',  ( 1000.000000000000000, 2.772695000000000000E-015, 8.000000000000000000 ) ) ;
#370 = PRODUCT ( '3_842_510_078_Bosch', '3_842_510_078_Bosch', '', ( #225 ) ) ;
#371 = ORIENTED_EDGE ( 'NONE', *, *, #234, .F. ) ;
#372 = CARTESIAN_POINT ( 'NONE',  ( 0.0000000000000000000, -1.368504999999999900E-015, -4.000000000000000000 ) ) ;
#373 = DIRECTION ( 'NONE',  ( 0.0000000000000000000, 0.0000000000000000000, 1.000000000000000000 ) ) ;
#374 = DIRECTION ( 'NONE',  ( 0.0000000000000000000, 0.0000000000000000000, 1.000000000000000000 ) ) ;
#375 = EDGE_CURVE ( 'NONE', #75, #79, #88, .T. ) ;
#376 = CARTESIAN_POINT ( 'NONE',  ( 1000.000000000000000, -4.000000000000000000, 5.500000000000000000 ) ) ;
#377 = DIRECTION ( 'NONE',  ( 0.0000000000000000000, -1.000000000000000000, 0.0000000000000000000 ) ) ;
#378 = CARTESIAN_POINT ( 'NONE',  ( 1000.000000000000000, -1.500000000000000000, -8.000000000000000000 ) ) ;
#379 = PLANE ( 'NONE',  #415 ) ;
#380 = LINE ( 'NONE', #307, #204 ) ;
#381 = FACE_OUTER_BOUND ( 'NONE', #93, .T. ) ;
#382 = VERTEX_POINT ( 'NONE', #106 ) ;
#383 = FACE_OUTER_BOUND ( 'NONE', #239, .T. ) ;
#384 = VERTEX_POINT ( 'NONE', #108 ) ;
#385 = APPLICATION_CONTEXT ( 'configuration controlled 3d designs of mechanical parts and assemblies' ) ;
#386 = PERSON_AND_ORGANIZATION_ROLE ( 'design_owner' ) ;
#387 = DIRECTION ( 'NONE',  ( 0.0000000000000000000, 0.0000000000000000000, 1.000000000000000000 ) ) ;
#388 = EDGE_CURVE ( 'NONE', #86, #212, #332, .T. ) ;
#389 = CARTESIAN_POINT ( 'NONE',  ( 1000.000000000000000, -1.368504999999999900E-015, -4.000000000000000000 ) ) ;
#390 = LINE ( 'NONE', #426, #301 ) ;
#391 = ORIENTED_EDGE ( 'NONE', *, *, #289, .T. ) ;
#392 = VECTOR ( 'NONE', #402, 1000.000000000000000 ) ;
#393 = LINE ( 'NONE', #378, #19 ) ;
#394 = EDGE_CURVE ( 'NONE', #134, #382, #380, .T. ) ;
#395 = DIRECTION ( 'NONE',  ( -1.000000000000000000, 0.0000000000000000000, 0.0000000000000000000 ) ) ;
#396 = LINE ( 'NONE', #389, #150 ) ;
#397 = VERTEX_POINT ( 'NONE', #179 ) ;
#398 = PERSON_AND_ORGANIZATION ( #210, #180 ) ;
#399 = AXIS2_PLACEMENT_3D ( 'NONE', #145, #216, #73 ) ;
#400 = VECTOR ( 'NONE', #275, 1000.000000000000000 ) ;
#401 = VECTOR ( 'NONE', #147, 1000.000000000000000 ) ;
#402 = DIRECTION ( 'NONE',  ( -1.000000000000000000, 0.0000000000000000000, 0.0000000000000000000 ) ) ;
#403 = AXIS2_PLACEMENT_3D ( 'NONE', #156, #258, #80 ) ;
#404 = DIRECTION ( 'NONE',  ( 0.0000000000000000000, 1.000000000000000000, 0.0000000000000000000 ) ) ;
#405 = DIRECTION ( 'NONE',  ( 0.0000000000000000000, 0.0000000000000000000, 1.000000000000000000 ) ) ;
#406 = CARTESIAN_POINT ( 'NONE',  ( 1000.000000000000000, -4.000000000000000000, -5.500000000000000000 ) ) ;
#407 = DIRECTION ( 'NONE',  ( -0.0000000000000000000, 1.000000000000000000, 0.0000000000000000000 ) ) ;
#408 = VERTEX_POINT ( 'NONE', #9 ) ;
#409 = EDGE_CURVE ( 'NONE', #397, #158, #393, .T. ) ;
#410 = DIRECTION ( 'NONE',  ( -1.000000000000000000, 0.0000000000000000000, 0.0000000000000000000 ) ) ;
#411 = PERSON_AND_ORGANIZATION ( #210, #180 ) ;
#412 = LINE ( 'NONE', #36, #292 ) ;
#413 = LINE ( 'NONE', #314, #246 ) ;
#414 = PERSON_AND_ORGANIZATION_ROLE ( 'classification_officer' ) ;
#415 = AXIS2_PLACEMENT_3D ( 'NONE', #109, #219, #410 ) ;
#416 = PERSON_AND_ORGANIZATION_ROLE ( 'design_supplier' ) ;
#417 = ORIENTED_EDGE ( 'NONE', *, *, #71, .T. ) ;
#418 = DIRECTION ( 'NONE',  ( 0.0000000000000000000, 0.0000000000000000000, -1.000000000000000000 ) ) ;
#419 =( GEOMETRIC_REPRESENTATION_CONTEXT ( 3 ) GLOBAL_UNCERTAINTY_ASSIGNED_CONTEXT ( ( #61 ) ) GLOBAL_UNIT_ASSIGNED_CONTEXT ( ( #116, #226, #49 ) ) REPRESENTATION_CONTEXT ( 'NONE', 'WORKASPACE' ) );
#420 = COORDINATED_UNIVERSAL_TIME_OFFSET ( 1, 0, .AHEAD. ) ;
#421 = EDGE_LOOP ( 'NONE', ( #148, #309, #187, #172 ) ) ;
#422 = ORIENTED_EDGE ( 'NONE', *, *, #56, .F. ) ;
#423 = CC_DESIGN_APPROVAL ( #50, ( #331 ) ) ;
#424 = DATE_AND_TIME ( #1, #256 ) ;
#425 = ORIENTED_EDGE ( 'NONE', *, *, #130, .T. ) ;
#426 = CARTESIAN_POINT ( 'NONE',  ( 0.0000000000000000000, -1.368504999999999900E-015, -4.000000000000000000 ) ) ;
#427 = DIRECTION ( 'NONE',  ( 0.0000000000000000000, 1.000000000000000000, 0.0000000000000000000 ) ) ;
#428 = CALENDAR_DATE ( 2024, 10, 6 ) ;
#429 = ORIENTED_EDGE ( 'NONE', *, *, #289, .F. ) ;
#430 = ADVANCED_FACE ( 'NONE', ( #136 ), #39, .T. ) ;
#431 = PLANE ( 'NONE',  #266 ) ;
#432 = VECTOR ( 'NONE', #374, 1000.000000000000000 ) ;
#433 = VERTEX_POINT ( 'NONE', #115 ) ;
#434 = PLANE ( 'NONE',  #286 ) ;
#435 = CARTESIAN_POINT ( 'NONE',  ( 1000.000000000000000, -4.000000000000000000, 5.500000000000000000 ) ) ;
ENDSEC;
END-ISO-10303-21;
