ISO-10303-21;
HEADER;
FILE_DESCRIPTION (( 'STEP AP203' ),
    '1' );
FILE_NAME ('3_842_510_165_Bosch.step',
    '2024-06-10T09:23:54',
    ( '' ),
    ( '' ),
    'SwSTEP 2.0',
    'SolidWorks 2014',
    '' );
FILE_SCHEMA (( 'CONFIG_CONTROL_DESIGN' ));
ENDSEC;

DATA;
#1 = EDGE_LOOP ( 'NONE', ( #288, #192, #25, #239 ) ) ;
#2 = ADVANCED_FACE ( 'NONE', ( #189 ), #29, .T. ) ;
#3 = ORIENTED_EDGE ( 'NONE', *, *, #264, .T. ) ;
#4 = CARTESIAN_POINT ( 'NONE',  ( 0.0000000000000000000, 0.0000000000000000000, -18.50000000007414900 ) ) ;
#5 = AXIS2_PLACEMENT_3D ( 'NONE', #181, #87, #305 ) ;
#6 = DIRECTION ( 'NONE',  ( 0.0000000000000000000, 0.0000000000000000000, 1.000000000000000000 ) ) ;
#7 = DIRECTION ( 'NONE',  ( 0.0000000000000000000, 0.0000000000000000000, -1.000000000000000000 ) ) ;
#8 = LINE ( 'NONE', #28, #251 ) ;
#9 = AXIS2_PLACEMENT_3D ( 'NONE', #88, #82, #256 ) ;
#10 = AXIS2_PLACEMENT_3D ( 'NONE', #172, #74, #45 ) ;
#11 = ORIENTED_EDGE ( 'NONE', *, *, #230, .T. ) ;
#12 = AXIS2_PLACEMENT_3D ( 'NONE', #216, #267, #165 ) ;
#13 = ORIENTED_EDGE ( 'NONE', *, *, #71, .F. ) ;
#14 =( NAMED_UNIT ( * ) SI_UNIT ( $, .STERADIAN. ) SOLID_ANGLE_UNIT ( ) );
#15 = APPROVAL_PERSON_ORGANIZATION ( #304, #289, #273 ) ;
#16 = APPROVAL_PERSON_ORGANIZATION ( #61, #319, #101 ) ;
#17 = CC_DESIGN_APPROVAL ( #289, ( #193 ) ) ;
#18 = CIRCLE ( 'NONE', #12, 3.000000000000000000 ) ;
#19 = DIRECTION ( 'NONE',  ( 0.0000000000000000000, 0.0000000000000000000, 1.000000000000000000 ) ) ;
#20 = APPLICATION_CONTEXT ( 'configuration controlled 3d designs of mechanical parts and assemblies' ) ;
#21 = APPROVAL_STATUS ( 'not_yet_approved' ) ;
#22 = DESIGN_CONTEXT ( 'detailed design', #20, 'design' ) ;
#23 = LOCAL_TIME ( 11, 23, 54.00000000000000000, #296 ) ;
#24 = CARTESIAN_POINT ( 'NONE',  ( -3.339550858072469900E-013, 9.237055564881299900E-014, -6.695393428386770000E-012 ) ) ;
#25 = ORIENTED_EDGE ( 'NONE', *, *, #71, .T. ) ;
#26 = ORIENTED_EDGE ( 'NONE', *, *, #196, .T. ) ;
#27 = APPROVAL_DATE_TIME ( #163, #289 ) ;
#28 = CARTESIAN_POINT ( 'NONE',  ( 3.000000000000000000, 3.673940397442059900E-016, 26.14999999999999900 ) ) ;
#29 = TOROIDAL_SURFACE ( 'NONE', #280, -29.99999999999465300, 39.99999999999649700 ) ;
#30 = EDGE_CURVE ( 'NONE', #35, #224, #276, .T. ) ;
#31 = DIRECTION ( 'NONE',  ( 0.0000000000000000000, 6.741711694208310400E-015, -1.000000000000000000 ) ) ;
#32 = CARTESIAN_POINT ( 'NONE',  ( 2.457721317334799700E-015, -1.387778999999999900E-016, 24.00000000000000000 ) ) ;
#33 = CC_DESIGN_APPROVAL ( #244, ( #327 ) ) ;
#34 = DIRECTION ( 'NONE',  ( 0.0000000000000000000, 0.0000000000000000000, 1.000000000000000000 ) ) ;
#35 = VERTEX_POINT ( 'NONE', #326 ) ;
#36 = CC_DESIGN_PERSON_AND_ORGANIZATION_ASSIGNMENT ( #57, #227, ( #327 ) ) ;
#37 = CARTESIAN_POINT ( 'NONE',  ( 0.0000000000000000000, 0.0000000000000000000, 0.0000000000000000000 ) ) ;
#38 = COORDINATED_UNIVERSAL_TIME_OFFSET ( 1, 0, .AHEAD. ) ;
#39 = DIRECTION ( 'NONE',  ( 0.0000000000000000000, 0.0000000000000000000, 1.000000000000000000 ) ) ;
#40 = ORIENTED_EDGE ( 'NONE', *, *, #66, .T. ) ;
#41 = VERTEX_POINT ( 'NONE', #55 ) ;
#42 = DATE_AND_TIME ( #329, #259 ) ;
#43 =( GEOMETRIC_REPRESENTATION_CONTEXT ( 3 ) GLOBAL_UNCERTAINTY_ASSIGNED_CONTEXT ( ( #148 ) ) GLOBAL_UNIT_ASSIGNED_CONTEXT ( ( #120, #320, #14 ) ) REPRESENTATION_CONTEXT ( 'NONE', 'WORKASPACE' ) );
#44 = CIRCLE ( 'NONE', #5, 3.875000000000000000 ) ;
#45 = DIRECTION ( 'NONE',  ( -1.000000000000000000, 0.0000000000000000000, 0.0000000000000000000 ) ) ;
#46 = MECHANICAL_CONTEXT ( 'NONE', #173, 'mechanical' ) ;
#47 = PERSON_AND_ORGANIZATION_ROLE ( 'design_owner' ) ;
#48 = CALENDAR_DATE ( 2024, 10, 6 ) ;
#49 = AXIS2_PLACEMENT_3D ( 'NONE', #4, #242, #243 ) ;
#50 = CIRCLE ( 'NONE', #321, 3.000000000000000000 ) ;
#51 = CC_DESIGN_DATE_AND_TIME_ASSIGNMENT ( #274, #146, ( #193 ) ) ;
#52 = FACE_OUTER_BOUND ( 'NONE', #139, .T. ) ;
#53 = EDGE_LOOP ( 'NONE', ( #197, #11, #266, #119 ) ) ;
#54 = CARTESIAN_POINT ( 'NONE',  ( 0.0000000000000000000, 0.0000000000000000000, -19.00000000000000000 ) ) ;
#55 = CARTESIAN_POINT ( 'NONE',  ( -3.000000000000000000, 0.0000000000000000000, 0.0000000000000000000 ) ) ;
#56 = CARTESIAN_POINT ( 'NONE',  ( 10.00000000000150800, 9.114590884961972900E-014, -1.651243129417884000E-029 ) ) ;
#57 = PERSON_AND_ORGANIZATION ( #180, #125 ) ;
#58 = DIRECTION ( 'NONE',  ( 1.000000000000000000, 0.0000000000000000000, -7.546979767529804600E-015 ) ) ;
#59 = CIRCLE ( 'NONE', #9, 3.000000000000000000 ) ;
#60 = EDGE_CURVE ( 'NONE', #224, #35, #174, .T. ) ;
#61 = PERSON_AND_ORGANIZATION ( #180, #125 ) ;
#62 = ORIENTED_EDGE ( 'NONE', *, *, #196, .F. ) ;
#63 = DIRECTION ( 'NONE',  ( 0.0000000000000000000, 0.0000000000000000000, 1.000000000000000000 ) ) ;
#64 = AXIS2_PLACEMENT_3D ( 'NONE', #104, #170, #133 ) ;
#65 = CARTESIAN_POINT ( 'NONE',  ( 0.0000000000000000000, 0.0000000000000000000, 26.14999999999999900 ) ) ;
#66 = EDGE_CURVE ( 'NONE', #70, #169, #8, .T. ) ;
#67 = COORDINATED_UNIVERSAL_TIME_OFFSET ( 1, 0, .AHEAD. ) ;
#68 = FACE_OUTER_BOUND ( 'NONE', #97, .T. ) ;
#69 = PRODUCT_DEFINITION ( 'UNKNOWN', '', #327, #22 ) ;
#70 = VERTEX_POINT ( 'NONE', #285 ) ;
#71 = EDGE_CURVE ( 'NONE', #41, #247, #143, .T. ) ;
#72 = ORIENTED_EDGE ( 'NONE', *, *, #264, .F. ) ;
#73 = APPROVAL_STATUS ( 'not_yet_approved' ) ;
#74 = DIRECTION ( 'NONE',  ( 0.0000000000000000000, 0.0000000000000000000, 1.000000000000000000 ) ) ;
#75 = LINE ( 'NONE', #269, #263 ) ;
#76 = EDGE_CURVE ( 'NONE', #279, #224, #138, .T. ) ;
#77 = ORIENTED_EDGE ( 'NONE', *, *, #129, .T. ) ;
#78 = ORIENTED_EDGE ( 'NONE', *, *, #190, .T. ) ;
#79 = AXIS2_PLACEMENT_3D ( 'NONE', #152, #286, #183 ) ;
#80 = ORIENTED_EDGE ( 'NONE', *, *, #166, .T. ) ;
#81 = DIRECTION ( 'NONE',  ( 0.0000000000000000000, 0.0000000000000000000, -1.000000000000000000 ) ) ;
#82 = DIRECTION ( 'NONE',  ( 0.0000000000000000000, 0.0000000000000000000, 1.000000000000000000 ) ) ;
#83 = EDGE_CURVE ( 'NONE', #315, #35, #208, .T. ) ;
#84 = COORDINATED_UNIVERSAL_TIME_OFFSET ( 1, 0, .AHEAD. ) ;
#85 = CARTESIAN_POINT ( 'NONE',  ( -3.000000000000000000, 0.0000000000000000000, 26.14999999999999900 ) ) ;
#86 = FACE_OUTER_BOUND ( 'NONE', #240, .T. ) ;
#87 = DIRECTION ( 'NONE',  ( 0.0000000000000000000, -1.000000000000000000, 0.0000000000000000000 ) ) ;
#88 = CARTESIAN_POINT ( 'NONE',  ( 0.0000000000000000000, 0.0000000000000000000, 0.0000000000000000000 ) ) ;
#89 = VERTEX_POINT ( 'NONE', #257 ) ;
#90 = ADVANCED_FACE ( 'NONE', ( #284 ), #324, .T. ) ;
#91 = FACE_OUTER_BOUND ( 'NONE', #53, .T. ) ;
#92 = CARTESIAN_POINT ( 'NONE',  ( 3.000000000000000000, 3.673940397442059900E-016, -18.50000000000319700 ) ) ;
#93 = SHAPE_DEFINITION_REPRESENTATION ( #212, #124 ) ;
#94 = ORIENTED_EDGE ( 'NONE', *, *, #60, .F. ) ;
#95 = DIRECTION ( 'NONE',  ( 1.000000000000000000, 0.0000000000000000000, 0.0000000000000000000 ) ) ;
#96 = AXIS2_PLACEMENT_3D ( 'NONE', #107, #206, #58 ) ;
#97 = EDGE_LOOP ( 'NONE', ( #186, #40, #135, #13 ) ) ;
#98 = SPHERICAL_SURFACE ( 'NONE', #235, 3.875000000000000000 ) ;
#99 = DIRECTION ( 'NONE',  ( 1.000000000000000000, 0.0000000000000000000, 0.0000000000000000000 ) ) ;
#100 = APPROVAL_ROLE ( '' ) ;
#101 = APPROVAL_ROLE ( '' ) ;
#102 = ORIENTED_EDGE ( 'NONE', *, *, #222, .F. ) ;
#103 = VECTOR ( 'NONE', #238, 1000.000000000000000 ) ;
#104 = CARTESIAN_POINT ( 'NONE',  ( 2.220446000000000000E-015, -1.387778999999999900E-016, 20.12500000000000000 ) ) ;
#105 = PLANE ( 'NONE',  #323 ) ;
#106 = CARTESIAN_POINT ( 'NONE',  ( 0.0000000000000000000, 0.0000000000000000000, 26.14999999999999900 ) ) ;
#107 = CARTESIAN_POINT ( 'NONE',  ( -1.547241175345564600E-013, -5.785997483809478500E-014, 22.28373702422240000 ) ) ;
#108 = DIRECTION ( 'NONE',  ( 1.000000000000000000, 0.0000000000000000000, 0.0000000000000000000 ) ) ;
#109 = DIRECTION ( 'NONE',  ( -8.043128855712701500E-015, 6.741711694208311200E-015, -1.000000000000000000 ) ) ;
#110 = PERSON_AND_ORGANIZATION ( #180, #125 ) ;
#111 = AXIS2_PLACEMENT_3D ( 'NONE', #234, #332, #31 ) ;
#112 = CONICAL_SURFACE ( 'NONE', #127, 2.999999999929060300, 0.7853981625568433600 ) ;
#113 = ADVANCED_FACE ( 'NONE', ( #313, #293 ), #105, .T. ) ;
#114 = TOROIDAL_SURFACE ( 'NONE', #141, -29.99999999999465300, 39.99999999999649700 ) ;
#115 = CC_DESIGN_DATE_AND_TIME_ASSIGNMENT ( #271, #297, ( #69 ) ) ;
#116 = EDGE_CURVE ( 'NONE', #268, #89, #318, .T. ) ;
#117 = DIRECTION ( 'NONE',  ( 1.000000000000000000, 0.0000000000000000000, 0.0000000000000000000 ) ) ;
#118 = ORIENTED_EDGE ( 'NONE', *, *, #30, .F. ) ;
#119 = ORIENTED_EDGE ( 'NONE', *, *, #30, .T. ) ;
#120 =( LENGTH_UNIT ( ) NAMED_UNIT ( * ) SI_UNIT ( .MILLI., .METRE. ) );
#121 = CIRCLE ( 'NONE', #252, 2.500000000843789900 ) ;
#122 = PERSON_AND_ORGANIZATION_ROLE ( 'creator' ) ;
#123 = AXIS2_PLACEMENT_3D ( 'NONE', #156, #128, #182 ) ;
#124 = ADVANCED_BREP_SHAPE_REPRESENTATION ( '3_842_510_165_Bosch', ( #177, #261 ), #43 ) ;
#125 = ORGANIZATION ( 'UNSPECIFIED', 'UNSPECIFIED', '' ) ;
#126 = ORIENTED_EDGE ( 'NONE', *, *, #250, .F. ) ;
#127 = AXIS2_PLACEMENT_3D ( 'NONE', #188, #39, #95 ) ;
#128 = DIRECTION ( 'NONE',  ( 5.422445586458262900E-029, 1.000000000000000000, 6.741711694208311200E-015 ) ) ;
#129 = EDGE_CURVE ( 'NONE', #89, #247, #75, .T. ) ;
#130 = DIRECTION ( 'NONE',  ( 0.0000000000000000000, 0.0000000000000000000, -1.000000000000000000 ) ) ;
#131 = DIRECTION ( 'NONE',  ( 8.043128855712701500E-015, -6.741711694208311200E-015, 1.000000000000000000 ) ) ;
#132 = CONICAL_SURFACE ( 'NONE', #49, 2.999999999929060300, 0.7853981625568433600 ) ;
#133 = DIRECTION ( 'NONE',  ( -1.000000000000000000, 1.224646799147353200E-016, 0.0000000000000000000 ) ) ;
#134 = DIRECTION ( 'NONE',  ( 0.0000000000000000000, 1.000000000000000000, 0.0000000000000000000 ) ) ;
#135 = ORIENTED_EDGE ( 'NONE', *, *, #331, .T. ) ;
#136 = CARTESIAN_POINT ( 'NONE',  ( 0.0000000000000000000, 0.0000000000000000000, -19.00000000000000000 ) ) ;
#137 = EDGE_LOOP ( 'NONE', ( #299, #158 ) ) ;
#138 = CIRCLE ( 'NONE', #111, 39.99999999999649700 ) ;
#139 = EDGE_LOOP ( 'NONE', ( #62, #94, #232 ) ) ;
#140 = ORIENTED_EDGE ( 'NONE', *, *, #203, .T. ) ;
#141 = AXIS2_PLACEMENT_3D ( 'NONE', #210, #131, #333 ) ;
#142 = APPROVAL_DATE_TIME ( #265, #319 ) ;
#143 = LINE ( 'NONE', #85, #153 ) ;
#144 = EDGE_CURVE ( 'NONE', #247, #169, #18, .T. ) ;
#145 = DIRECTION ( 'NONE',  ( -1.000000000000000000, 1.163372172775590100E-043, 8.043128855712701500E-015 ) ) ;
#146 = DATE_TIME_ROLE ( 'classification_date' ) ;
#147 = ORIENTED_EDGE ( 'NONE', *, *, #76, .T. ) ;
#148 = UNCERTAINTY_MEASURE_WITH_UNIT (LENGTH_MEASURE( 1.000000000000000100E-005 ), #120, 'distance_accuracy_value', 'NONE');
#149 = EDGE_LOOP ( 'NONE', ( #72, #307 ) ) ;
#150 = SPHERICAL_SURFACE ( 'NONE', #282, 3.875000000000000000 ) ;
#151 = DIRECTION ( 'NONE',  ( 0.0000000000000000000, 0.0000000000000000000, -1.000000000000000000 ) ) ;
#152 = CARTESIAN_POINT ( 'NONE',  ( -3.339550858072469900E-013, 9.237055564881299900E-014, 0.0000000000000000000 ) ) ;
#153 = VECTOR ( 'NONE', #130, 1000.000000000000000 ) ;
#154 = PRODUCT ( '3_842_510_165_Bosch', '3_842_510_165_Bosch', '', ( #46 ) ) ;
#155 = DIRECTION ( 'NONE',  ( 1.000000000000000000, 0.0000000000000000000, 0.0000000000000000000 ) ) ;
#156 = CARTESIAN_POINT ( 'NONE',  ( 29.99999999999431900, 9.237055564881299900E-014, -6.936687294058107700E-012 ) ) ;
#157 = CARTESIAN_POINT ( 'NONE',  ( 2.220446000000000000E-015, -1.387778999999999900E-016, 20.12500000000000000 ) ) ;
#158 = ORIENTED_EDGE ( 'NONE', *, *, #190, .F. ) ;
#159 = ADVANCED_FACE ( 'NONE', ( #68 ), #226, .T. ) ;
#160 = ADVANCED_FACE ( 'NONE', ( #330 ), #132, .T. ) ;
#161 = ORIENTED_EDGE ( 'NONE', *, *, #83, .F. ) ;
#162 = DIRECTION ( 'NONE',  ( -0.7071067805921500400, 8.659560555075663400E-017, 0.7071067817809449900 ) ) ;
#163 = DATE_AND_TIME ( #48, #205 ) ;
#164 = DIRECTION ( 'NONE',  ( -1.000000000000000000, 0.0000000000000000000, 0.0000000000000000000 ) ) ;
#165 = DIRECTION ( 'NONE',  ( -1.000000000000000000, 0.0000000000000000000, 0.0000000000000000000 ) ) ;
#166 = EDGE_CURVE ( 'NONE', #41, #70, #50, .T. ) ;
#167 = DIRECTION ( 'NONE',  ( -1.000000000000000000, 0.0000000000000000000, 0.0000000000000000000 ) ) ;
#168 = EDGE_LOOP ( 'NONE', ( #80, #140 ) ) ;
#169 = VERTEX_POINT ( 'NONE', #92 ) ;
#170 = DIRECTION ( 'NONE',  ( 1.224646799147353200E-016, 1.000000000000000000, -0.0000000000000000000 ) ) ;
#171 = CC_DESIGN_PERSON_AND_ORGANIZATION_ASSIGNMENT ( #223, #298, ( #327 ) ) ;
#172 = CARTESIAN_POINT ( 'NONE',  ( 0.0000000000000000000, 0.0000000000000000000, -18.50000000000319700 ) ) ;
#173 = APPLICATION_CONTEXT ( 'configuration controlled 3d designs of mechanical parts and assemblies' ) ;
#174 = CIRCLE ( 'NONE', #295, 3.217993079584519700 ) ;
#175 = ORIENTED_EDGE ( 'NONE', *, *, #250, .T. ) ;
#176 = PERSON_AND_ORGANIZATION ( #180, #125 ) ;
#177 = MANIFOLD_SOLID_BREP ( 'Imported1', #204 ) ;
#178 = CC_DESIGN_APPROVAL ( #319, ( #69 ) ) ;
#179 = CARTESIAN_POINT ( 'NONE',  ( -3.339550858072469900E-013, 9.237055564881299900E-014, 0.0000000000000000000 ) ) ;
#180 = PERSON ( 'UNSPECIFIED', 'UNSPECIFIED', 'UNSPECIFIED', ('UNSPECIFIED'), ('UNSPECIFIED'), ('UNSPECIFIED') ) ;
#181 = CARTESIAN_POINT ( 'NONE',  ( 2.220446000000000000E-015, -1.387778999999999900E-016, 20.12500000000000000 ) ) ;
#182 = DIRECTION ( 'NONE',  ( 0.0000000000000000000, -6.741711694208312000E-015, 1.000000000000000000 ) ) ;
#183 = DIRECTION ( 'NONE',  ( 1.000000000000000000, 0.0000000000000000000, 0.0000000000000000000 ) ) ;
#184 = LOCAL_TIME ( 11, 23, 54.00000000000000000, #314 ) ;
#185 = ADVANCED_FACE ( 'NONE', ( #306 ), #112, .T. ) ;
#186 = ORIENTED_EDGE ( 'NONE', *, *, #203, .F. ) ;
#187 = DIRECTION ( 'NONE',  ( 1.000000000000000000, 0.0000000000000000000, 0.0000000000000000000 ) ) ;
#188 = CARTESIAN_POINT ( 'NONE',  ( 0.0000000000000000000, 0.0000000000000000000, -18.50000000007414900 ) ) ;
#189 = FACE_OUTER_BOUND ( 'NONE', #201, .T. ) ;
#190 = EDGE_CURVE ( 'NONE', #89, #268, #121, .T. ) ;
#191 = CYLINDRICAL_SURFACE ( 'NONE', #225, 3.000000000000000000 ) ;
#192 = ORIENTED_EDGE ( 'NONE', *, *, #166, .F. ) ;
#193 = SECURITY_CLASSIFICATION ( '', '', #277 ) ;
#194 = CARTESIAN_POINT ( 'NONE',  ( 0.0000000000000000000, 0.0000000000000000000, 0.0000000000000000000 ) ) ;
#195 = EDGE_LOOP ( 'NONE', ( #325, #77, #272, #126 ) ) ;
#196 = EDGE_CURVE ( 'NONE', #35, #294, #221, .T. ) ;
#197 = ORIENTED_EDGE ( 'NONE', *, *, #76, .F. ) ;
#198 = APPLICATION_PROTOCOL_DEFINITION ( 'international standard', 'config_control_design', 1994, #173 ) ;
#199 = APPROVAL_STATUS ( 'not_yet_approved' ) ;
#200 = DIRECTION ( 'NONE',  ( 0.0000000000000000000, -1.000000000000000000, 0.0000000000000000000 ) ) ;
#201 = EDGE_LOOP ( 'NONE', ( #3, #147, #254, #161 ) ) ;
#202 = AXIS2_PLACEMENT_3D ( 'NONE', #65, #7, #164 ) ;
#203 = EDGE_CURVE ( 'NONE', #70, #41, #59, .T. ) ;
#204 = CLOSED_SHELL ( 'NONE', ( #215, #185, #159, #2, #217, #308, #160, #90, #287, #113 ) ) ;
#205 = LOCAL_TIME ( 11, 23, 54.00000000000000000, #67 ) ;
#206 = DIRECTION ( 'NONE',  ( -8.043128855712701500E-015, 6.741711694208311200E-015, -1.000000000000000000 ) ) ;
#207 = CARTESIAN_POINT ( 'NONE',  ( 2.500000000843789900, 0.0000000000000000000, -19.00000000000000000 ) ) ;
#208 = CIRCLE ( 'NONE', #123, 39.99999999999649700 ) ;
#209 = DIRECTION ( 'NONE',  ( 0.0000000000000000000, 0.0000000000000000000, -1.000000000000000000 ) ) ;
#210 = CARTESIAN_POINT ( 'NONE',  ( -3.339550858072469900E-013, 9.237055564881299900E-014, -6.695393428386770000E-012 ) ) ;
#211 = CARTESIAN_POINT ( 'NONE',  ( 2.999999999929060300, 0.0000000000000000000, -18.50000000007414900 ) ) ;
#212 = PRODUCT_DEFINITION_SHAPE ( 'NONE', 'NONE',  #69 ) ;
#213 = AXIS2_PLACEMENT_3D ( 'NONE', #309, #63, #117 ) ;
#214 = ORIENTED_EDGE ( 'NONE', *, *, #144, .F. ) ;
#215 = ADVANCED_FACE ( 'NONE', ( #86 ), #98, .T. ) ;
#216 = CARTESIAN_POINT ( 'NONE',  ( 0.0000000000000000000, 0.0000000000000000000, -18.50000000000319700 ) ) ;
#217 = ADVANCED_FACE ( 'NONE', ( #91 ), #114, .T. ) ;
#218 = CC_DESIGN_PERSON_AND_ORGANIZATION_ASSIGNMENT ( #317, #249, ( #193 ) ) ;
#219 = CALENDAR_DATE ( 2024, 10, 6 ) ;
#220 = DIRECTION ( 'NONE',  ( -1.000000000000000000, 0.0000000000000000000, 0.0000000000000000000 ) ) ;
#221 = CIRCLE ( 'NONE', #64, 3.875000000000000000 ) ;
#222 = EDGE_CURVE ( 'NONE', #224, #294, #44, .T. ) ;
#223 = PERSON_AND_ORGANIZATION ( #180, #125 ) ;
#224 = VERTEX_POINT ( 'NONE', #303 ) ;
#225 = AXIS2_PLACEMENT_3D ( 'NONE', #106, #290, #220 ) ;
#226 = CYLINDRICAL_SURFACE ( 'NONE', #202, 3.000000000000000000 ) ;
#227 = PERSON_AND_ORGANIZATION_ROLE ( 'design_supplier' ) ;
#228 = CC_DESIGN_PERSON_AND_ORGANIZATION_ASSIGNMENT ( #292, #47, ( #154 ) ) ;
#229 = APPLICATION_PROTOCOL_DEFINITION ( 'international standard', 'config_control_design', 1994, #20 ) ;
#230 = EDGE_CURVE ( 'NONE', #279, #315, #301, .T. ) ;
#231 = ORIENTED_EDGE ( 'NONE', *, *, #129, .F. ) ;
#232 = ORIENTED_EDGE ( 'NONE', *, *, #222, .T. ) ;
#233 = FACE_OUTER_BOUND ( 'NONE', #1, .T. ) ;
#234 = CARTESIAN_POINT ( 'NONE',  ( -29.99999999999498700, 9.604449604625439700E-014, -6.454099562715431600E-012 ) ) ;
#235 = AXIS2_PLACEMENT_3D ( 'NONE', #157, #328, #155 ) ;
#236 = DIRECTION ( 'NONE',  ( 1.000000000000000000, 0.0000000000000000000, -7.546979767529804600E-015 ) ) ;
#237 = DIRECTION ( 'NONE',  ( 1.000000000000000000, 0.0000000000000000000, 0.0000000000000000000 ) ) ;
#238 = DIRECTION ( 'NONE',  ( 0.7071067805921500400, 0.0000000000000000000, 0.7071067817809449900 ) ) ;
#239 = ORIENTED_EDGE ( 'NONE', *, *, #144, .T. ) ;
#240 = EDGE_LOOP ( 'NONE', ( #118, #26, #102 ) ) ;
#241 = APPROVAL_DATE_TIME ( #42, #244 ) ;
#242 = DIRECTION ( 'NONE',  ( 0.0000000000000000000, 0.0000000000000000000, 1.000000000000000000 ) ) ;
#243 = DIRECTION ( 'NONE',  ( 1.000000000000000000, 0.0000000000000000000, 0.0000000000000000000 ) ) ;
#244 = APPROVAL ( #73, 'UNSPECIFIED' ) ;
#245 = CALENDAR_DATE ( 2024, 10, 6 ) ;
#246 = AXIS2_PLACEMENT_3D ( 'NONE', #54, #81, #255 ) ;
#247 = VERTEX_POINT ( 'NONE', #258 ) ;
#248 = CC_DESIGN_SECURITY_CLASSIFICATION ( #193, ( #327 ) ) ;
#249 = PERSON_AND_ORGANIZATION_ROLE ( 'classification_officer' ) ;
#250 = EDGE_CURVE ( 'NONE', #268, #169, #310, .T. ) ;
#251 = VECTOR ( 'NONE', #209, 1000.000000000000000 ) ;
#252 = AXIS2_PLACEMENT_3D ( 'NONE', #136, #311, #187 ) ;
#253 = CIRCLE ( 'NONE', #79, 10.00000000000184000 ) ;
#254 = ORIENTED_EDGE ( 'NONE', *, *, #60, .T. ) ;
#255 = DIRECTION ( 'NONE',  ( 0.0000000000000000000, -1.000000000000000000, 0.0000000000000000000 ) ) ;
#256 = DIRECTION ( 'NONE',  ( -1.000000000000000000, 0.0000000000000000000, 0.0000000000000000000 ) ) ;
#257 = CARTESIAN_POINT ( 'NONE',  ( -2.500000000843789900, 3.367778698170710100E-016, -19.00000000000000000 ) ) ;
#258 = CARTESIAN_POINT ( 'NONE',  ( -3.000000000000000000, 0.0000000000000000000, -18.50000000000319700 ) ) ;
#259 = LOCAL_TIME ( 11, 23, 54.00000000000000000, #38 ) ;
#260 = CARTESIAN_POINT ( 'NONE',  ( -1.547241175345564600E-013, -5.785997483809478500E-014, 22.28373702422240000 ) ) ;
#261 = AXIS2_PLACEMENT_3D ( 'NONE', #194, #19, #99 ) ;
#262 = CARTESIAN_POINT ( 'NONE',  ( 2.220446000000000000E-015, -1.387778999999999900E-016, 20.12500000000000000 ) ) ;
#263 = VECTOR ( 'NONE', #162, 1000.000000000000000 ) ;
#264 = EDGE_CURVE ( 'NONE', #315, #279, #253, .T. ) ;
#265 = DATE_AND_TIME ( #219, #283 ) ;
#266 = ORIENTED_EDGE ( 'NONE', *, *, #83, .T. ) ;
#267 = DIRECTION ( 'NONE',  ( 0.0000000000000000000, 0.0000000000000000000, 1.000000000000000000 ) ) ;
#268 = VERTEX_POINT ( 'NONE', #207 ) ;
#269 = CARTESIAN_POINT ( 'NONE',  ( -2.999999999929060300, 3.673940397355183600E-016, -18.50000000007414900 ) ) ;
#270 = CALENDAR_DATE ( 2024, 10, 6 ) ;
#271 = DATE_AND_TIME ( #245, #184 ) ;
#272 = ORIENTED_EDGE ( 'NONE', *, *, #331, .F. ) ;
#273 = APPROVAL_ROLE ( '' ) ;
#274 = DATE_AND_TIME ( #270, #23 ) ;
#275 = CIRCLE ( 'NONE', #10, 3.000000000000000000 ) ;
#276 = CIRCLE ( 'NONE', #96, 3.217993079584519700 ) ;
#277 = SECURITY_CLASSIFICATION_LEVEL ( 'unclassified' ) ;
#278 = PRODUCT_RELATED_PRODUCT_CATEGORY ( 'detail', '', ( #154 ) ) ;
#279 = VERTEX_POINT ( 'NONE', #56 ) ;
#280 = AXIS2_PLACEMENT_3D ( 'NONE', #24, #316, #145 ) ;
#281 = CARTESIAN_POINT ( 'NONE',  ( 0.0000000000000000000, 0.0000000000000000000, 0.0000000000000000000 ) ) ;
#282 = AXIS2_PLACEMENT_3D ( 'NONE', #262, #134, #237 ) ;
#283 = LOCAL_TIME ( 11, 23, 54.00000000000000000, #84 ) ;
#284 = FACE_OUTER_BOUND ( 'NONE', #137, .T. ) ;
#285 = CARTESIAN_POINT ( 'NONE',  ( 3.000000000000000000, 3.673940397442059900E-016, 0.0000000000000000000 ) ) ;
#286 = DIRECTION ( 'NONE',  ( 0.0000000000000000000, 0.0000000000000000000, 1.000000000000000000 ) ) ;
#287 = ADVANCED_FACE ( 'NONE', ( #52 ), #150, .T. ) ;
#288 = ORIENTED_EDGE ( 'NONE', *, *, #66, .F. ) ;
#289 = APPROVAL ( #21, 'UNSPECIFIED' ) ;
#290 = DIRECTION ( 'NONE',  ( 0.0000000000000000000, 0.0000000000000000000, -1.000000000000000000 ) ) ;
#291 = APPROVAL_PERSON_ORGANIZATION ( #110, #244, #100 ) ;
#292 = PERSON_AND_ORGANIZATION ( #180, #125 ) ;
#293 = FACE_BOUND ( 'NONE', #168, .T. ) ;
#294 = VERTEX_POINT ( 'NONE', #32 ) ;
#295 = AXIS2_PLACEMENT_3D ( 'NONE', #260, #109, #236 ) ;
#296 = COORDINATED_UNIVERSAL_TIME_OFFSET ( 1, 0, .AHEAD. ) ;
#297 = DATE_TIME_ROLE ( 'creation_date' ) ;
#298 = PERSON_AND_ORGANIZATION_ROLE ( 'creator' ) ;
#299 = ORIENTED_EDGE ( 'NONE', *, *, #116, .F. ) ;
#300 = AXIS2_PLACEMENT_3D ( 'NONE', #179, #34, #108 ) ;
#301 = CIRCLE ( 'NONE', #300, 10.00000000000184000 ) ;
#302 = CARTESIAN_POINT ( 'NONE',  ( -10.00000000000217800, 9.237055564876840600E-014, 3.944304526105131700E-028 ) ) ;
#303 = CARTESIAN_POINT ( 'NONE',  ( 3.217993079584364300, 1.644592175956268800E-014, 22.28373702422237600 ) ) ;
#304 = PERSON_AND_ORGANIZATION ( #180, #125 ) ;
#305 = DIRECTION ( 'NONE',  ( 0.0000000000000000000, 0.0000000000000000000, -1.000000000000000000 ) ) ;
#306 = FACE_OUTER_BOUND ( 'NONE', #195, .T. ) ;
#307 = ORIENTED_EDGE ( 'NONE', *, *, #230, .F. ) ;
#308 = ADVANCED_FACE ( 'NONE', ( #233 ), #191, .T. ) ;
#309 = CARTESIAN_POINT ( 'NONE',  ( 0.0000000000000000000, 0.0000000000000000000, -19.00000000000000000 ) ) ;
#310 = LINE ( 'NONE', #211, #103 ) ;
#311 = DIRECTION ( 'NONE',  ( 0.0000000000000000000, 0.0000000000000000000, 1.000000000000000000 ) ) ;
#312 = CC_DESIGN_PERSON_AND_ORGANIZATION_ASSIGNMENT ( #176, #122, ( #69 ) ) ;
#313 = FACE_OUTER_BOUND ( 'NONE', #149, .T. ) ;
#314 = COORDINATED_UNIVERSAL_TIME_OFFSET ( 1, 0, .AHEAD. ) ;
#315 = VERTEX_POINT ( 'NONE', #302 ) ;
#316 = DIRECTION ( 'NONE',  ( 8.043128855712701500E-015, -6.741711694208311200E-015, 1.000000000000000000 ) ) ;
#317 = PERSON_AND_ORGANIZATION ( #180, #125 ) ;
#318 = CIRCLE ( 'NONE', #213, 2.500000000843789900 ) ;
#319 = APPROVAL ( #199, 'UNSPECIFIED' ) ;
#320 =( NAMED_UNIT ( * ) PLANE_ANGLE_UNIT ( ) SI_UNIT ( $, .RADIAN. ) );
#321 = AXIS2_PLACEMENT_3D ( 'NONE', #37, #6, #167 ) ;
#322 = EDGE_LOOP ( 'NONE', ( #231, #78, #175, #214 ) ) ;
#323 = AXIS2_PLACEMENT_3D ( 'NONE', #281, #151, #200 ) ;
#324 = PLANE ( 'NONE',  #246 ) ;
#325 = ORIENTED_EDGE ( 'NONE', *, *, #116, .T. ) ;
#326 = CARTESIAN_POINT ( 'NONE',  ( -3.217993079584674300, 1.725529040536601800E-014, 22.28373702422242500 ) ) ;
#327 = PRODUCT_DEFINITION_FORMATION_WITH_SPECIFIED_SOURCE ( 'ANY', '', #154, .NOT_KNOWN. ) ;
#328 = DIRECTION ( 'NONE',  ( 0.0000000000000000000, 1.000000000000000000, 0.0000000000000000000 ) ) ;
#329 = CALENDAR_DATE ( 2024, 10, 6 ) ;
#330 = FACE_OUTER_BOUND ( 'NONE', #322, .T. ) ;
#331 = EDGE_CURVE ( 'NONE', #169, #247, #275, .T. ) ;
#332 = DIRECTION ( 'NONE',  ( -1.224646799147895500E-016, -1.000000000000000000, -6.741711694208310400E-015 ) ) ;
#333 = DIRECTION ( 'NONE',  ( -1.000000000000000000, 1.163372172775590100E-043, 8.043128855712701500E-015 ) ) ;
ENDSEC;
END-ISO-10303-21;
