ISO-10303-21;
HEADER;
FILE_DESCRIPTION (( 'STEP AP203' ),
    '1' );
FILE_NAME ('3_842_510_464_Bosch.step',
    '2024-06-10T09:24:03',
    ( '' ),
    ( '' ),
    'SwSTEP 2.0',
    'SolidWorks 2014',
    '' );
FILE_SCHEMA (( 'CONFIG_CONTROL_DESIGN' ));
ENDSEC;

DATA;
#1 = CC_DESIGN_APPROVAL ( #263, ( #136 ) ) ;
#2 = DIRECTION ( 'NONE',  ( -7.971401000000000600E-014, 1.000000000000000000, -6.123032000000000300E-017 ) ) ;
#3 = DIRECTION ( 'NONE',  ( 0.0000000000000000000, 0.0000000000000000000, -1.000000000000000000 ) ) ;
#4 = ORIENTED_EDGE ( 'NONE', *, *, #45, .T. ) ;
#5 = CARTESIAN_POINT ( 'NONE',  ( 0.0000000000000000000, 0.0000000000000000000, 0.0000000000000000000 ) ) ;
#6 = ORIENTED_EDGE ( 'NONE', *, *, #87, .T. ) ;
#7 = CC_DESIGN_DATE_AND_TIME_ASSIGNMENT ( #249, #131, ( #59 ) ) ;
#8 = CYLINDRICAL_SURFACE ( 'NONE', #264, 10.00000000000000000 ) ;
#9 = FACE_OUTER_BOUND ( 'NONE', #76, .T. ) ;
#10 = APPROVAL_STATUS ( 'not_yet_approved' ) ;
#11 = CARTESIAN_POINT ( 'NONE',  ( 5.978550749999998200E-013, -15.00000000000000000, 10.00000000000000200 ) ) ;
#12 = DIRECTION ( 'NONE',  ( 7.971401000000000600E-014, -1.000000000000000000, 6.123032000000000300E-017 ) ) ;
#13 = PERSON_AND_ORGANIZATION_ROLE ( 'creator' ) ;
#14 = FACE_OUTER_BOUND ( 'NONE', #23, .T. ) ;
#15 = CC_DESIGN_APPROVAL ( #176, ( #59 ) ) ;
#16 = DIRECTION ( 'NONE',  ( -7.971401000000000600E-014, 1.000000000000000000, -6.123032000000000300E-017 ) ) ;
#17 = ORIENTED_EDGE ( 'NONE', *, *, #39, .F. ) ;
#18 = AXIS2_PLACEMENT_3D ( 'NONE', #306, #283, #233 ) ;
#19 = CARTESIAN_POINT ( 'NONE',  ( -10.99999999999880100, -15.00000000000090100, -11.00000000000000000 ) ) ;
#20 = CARTESIAN_POINT ( 'NONE',  ( -3.782741534602654200E-013, 9.500000000000000000, -3.000000000000000900 ) ) ;
#21 = ORIENTED_EDGE ( 'NONE', *, *, #87, .F. ) ;
#22 = CIRCLE ( 'NONE', #307, 3.000000000000000000 ) ;
#23 = EDGE_LOOP ( 'NONE', ( #270, #317, #297, #81, #253 ) ) ;
#24 = CC_DESIGN_DATE_AND_TIME_ASSIGNMENT ( #184, #311, ( #136 ) ) ;
#25 = EDGE_LOOP ( 'NONE', ( #321, #168 ) ) ;
#26 = FACE_BOUND ( 'NONE', #132, .T. ) ;
#27 = CC_DESIGN_PERSON_AND_ORGANIZATION_ASSIGNMENT ( #106, #210, ( #238 ) ) ;
#28 = CARTESIAN_POINT ( 'NONE',  ( -1.000000000000916800, 11.49999999999992000, -7.041486799999999600E-016 ) ) ;
#29 = CIRCLE ( 'NONE', #325, 3.000000000000000000 ) ;
#30 = ADVANCED_FACE ( 'NONE', ( #158 ), #165, .F. ) ;
#31 = AXIS2_PLACEMENT_3D ( 'NONE', #261, #211, #288 ) ;
#32 = DIRECTION ( 'NONE',  ( 0.0000000000000000000, 0.0000000000000000000, -1.000000000000000000 ) ) ;
#33 = ORIENTED_EDGE ( 'NONE', *, *, #147, .T. ) ;
#34 = APPROVAL_ROLE ( '' ) ;
#35 = PERSON_AND_ORGANIZATION_ROLE ( 'creator' ) ;
#36 = PERSON_AND_ORGANIZATION ( #61, #322 ) ;
#37 = CC_DESIGN_PERSON_AND_ORGANIZATION_ASSIGNMENT ( #120, #35, ( #59 ) ) ;
#38 =( LENGTH_UNIT ( ) NAMED_UNIT ( * ) SI_UNIT ( .MILLI., .METRE. ) );
#39 = EDGE_CURVE ( 'NONE', #95, #217, #83, .T. ) ;
#40 = DIRECTION ( 'NONE',  ( 0.0000000000000000000, 0.0000000000000000000, -1.000000000000000000 ) ) ;
#41 = DIRECTION ( 'NONE',  ( 0.7071067805520124800, -0.7071067818210825500, -4.329923102075576300E-017 ) ) ;
#42 = CARTESIAN_POINT ( 'NONE',  ( -7.971400999999999300E-013, 10.00000000000000000, -6.123031999999999300E-016 ) ) ;
#43 = CARTESIAN_POINT ( 'NONE',  ( 1.295352662500000100E-012, -16.25000000000000000, 9.949926999999999300E-016 ) ) ;
#44 = VECTOR ( 'NONE', #66, 1000.000000000000000 ) ;
#45 = EDGE_CURVE ( 'NONE', #287, #248, #222, .T. ) ;
#46 = PERSON_AND_ORGANIZATION ( #61, #322 ) ;
#47 = AXIS2_PLACEMENT_3D ( 'NONE', #56, #205, #313 ) ;
#48 = LINE ( 'NONE', #200, #236 ) ;
#49 = APPROVAL_PERSON_ORGANIZATION ( #115, #263, #293 ) ;
#50 = CARTESIAN_POINT ( 'NONE',  ( -7.971400999999999300E-013, 10.00000000000000000, -6.123031999999999300E-016 ) ) ;
#51 = DIRECTION ( 'NONE',  ( 4.880914340783199700E-030, -6.123032000000000300E-017, -1.000000000000000000 ) ) ;
#52 = DIRECTION ( 'NONE',  ( 7.971401000000000600E-014, -1.000000000000000000, 6.123032000000000300E-017 ) ) ;
#53 = COORDINATED_UNIVERSAL_TIME_OFFSET ( 1, 0, .AHEAD. ) ;
#54 = DIRECTION ( 'NONE',  ( 0.0000000000000000000, 0.0000000000000000000, -1.000000000000000000 ) ) ;
#55 = CIRCLE ( 'NONE', #254, 3.000000000000000000 ) ;
#56 = CARTESIAN_POINT ( 'NONE',  ( 1.195710150000000000E-012, -15.00000000000000000, 9.184547999999998900E-016 ) ) ;
#57 = APPROVAL_ROLE ( '' ) ;
#58 = CALENDAR_DATE ( 2024, 10, 6 ) ;
#59 = PRODUCT_DEFINITION ( 'UNKNOWN', '', #146, #320 ) ;
#60 = VECTOR ( 'NONE', #2, 1000.000000000000000 ) ;
#61 = PERSON ( 'UNSPECIFIED', 'UNSPECIFIED', 'UNSPECIFIED', ('UNSPECIFIED'), ('UNSPECIFIED'), ('UNSPECIFIED') ) ;
#62 = PERSON_AND_ORGANIZATION_ROLE ( 'classification_officer' ) ;
#63 = DIRECTION ( 'NONE',  ( 4.880914340783199000E-030, -6.123032000000000300E-017, -1.000000000000000000 ) ) ;
#64 = EDGE_LOOP ( 'NONE', ( #221, #187, #17, #273, #123 ) ) ;
#65 = APPROVAL_PERSON_ORGANIZATION ( #215, #176, #57 ) ;
#66 = DIRECTION ( 'NONE',  ( -7.971401000000000600E-014, 1.000000000000000000, -6.123032000000000300E-017 ) ) ;
#67 = EDGE_CURVE ( 'NONE', #287, #223, #197, .T. ) ;
#68 = CIRCLE ( 'NONE', #143, 3.000000000000000000 ) ;
#69 = CARTESIAN_POINT ( 'NONE',  ( 0.9999999999990831800, 11.50000000000008000, -8.266133599147353000E-016 ) ) ;
#70 = CYLINDRICAL_SURFACE ( 'NONE', #323, 3.000000000000000000 ) ;
#71 = PRODUCT_DEFINITION_SHAPE ( 'NONE', 'NONE',  #59 ) ;
#72 = ORIENTED_EDGE ( 'NONE', *, *, #224, .F. ) ;
#73 = EDGE_CURVE ( 'NONE', #109, #217, #209, .T. ) ;
#74 = LINE ( 'NONE', #28, #92 ) ;
#75 = ORIENTED_EDGE ( 'NONE', *, *, #193, .F. ) ;
#76 = EDGE_LOOP ( 'NONE', ( #242, #299 ) ) ;
#77 = CARTESIAN_POINT ( 'NONE',  ( 5.990797217991472200E-013, -15.00000000000000000, -9.999999999999998200 ) ) ;
#78 = LINE ( 'NONE', #88, #44 ) ;
#79 = AXIS2_PLACEMENT_3D ( 'NONE', #241, #216, #63 ) ;
#80 = DIRECTION ( 'NONE',  ( 0.0000000000000000000, 0.0000000000000000000, 1.000000000000000000 ) ) ;
#81 = ORIENTED_EDGE ( 'NONE', *, *, #207, .T. ) ;
#82 = DIRECTION ( 'NONE',  ( 0.0000000000000000000, 0.0000000000000000000, 1.000000000000000000 ) ) ;
#83 = CIRCLE ( 'NONE', #186, 3.000000000000000000 ) ;
#84 = MANIFOLD_SOLID_BREP ( 'Imported1', #324 ) ;
#85 =( NAMED_UNIT ( * ) SI_UNIT ( $, .STERADIAN. ) SOLID_ANGLE_UNIT ( ) );
#86 = CYLINDRICAL_SURFACE ( 'NONE', #280, 10.00000000000000000 ) ;
#87 = EDGE_CURVE ( 'NONE', #109, #89, #303, .T. ) ;
#88 = CARTESIAN_POINT ( 'NONE',  ( 1.296577309299147300E-012, -16.25000000000000000, -9.999999999999998200 ) ) ;
#89 = VERTEX_POINT ( 'NONE', #90 ) ;
#90 = CARTESIAN_POINT ( 'NONE',  ( -2.500000000000797100, 9.999999999999801000, -5.969956199917512100E-016 ) ) ;
#91 = CARTESIAN_POINT ( 'NONE',  ( 2.499999999999202900, 10.00000000000019900, -9.337734895539661600E-016 ) ) ;
#92 = VECTOR ( 'NONE', #122, 1000.000000000000100 ) ;
#93 = EDGE_LOOP ( 'NONE', ( #4, #33, #225, #294, #230 ) ) ;
#94 = EDGE_CURVE ( 'NONE', #196, #214, #78, .T. ) ;
#95 = VERTEX_POINT ( 'NONE', #20 ) ;
#96 = COORDINATED_UNIVERSAL_TIME_OFFSET ( 1, 0, .AHEAD. ) ;
#97 = ORIENTED_EDGE ( 'NONE', *, *, #181, .F. ) ;
#98 = ORIENTED_EDGE ( 'NONE', *, *, #119, .T. ) ;
#99 = ORIENTED_EDGE ( 'NONE', *, *, #111, .F. ) ;
#100 = ADVANCED_BREP_SHAPE_REPRESENTATION ( '3_842_510_464_Bosch', ( #84, #127 ), #246 ) ;
#101 = PERSON_AND_ORGANIZATION ( #61, #322 ) ;
#102 = CARTESIAN_POINT ( 'NONE',  ( 1.295352662500000100E-012, -16.25000000000000000, 9.949926999999999300E-016 ) ) ;
#103 = DIRECTION ( 'NONE',  ( -7.971401000000000600E-014, 1.000000000000000000, -6.123032000000000300E-017 ) ) ;
#104 = AXIS2_PLACEMENT_3D ( 'NONE', #286, #154, #128 ) ;
#105 = CARTESIAN_POINT ( 'NONE',  ( 1.295352662500000100E-012, -16.25000000000000000, 10.00000000000000200 ) ) ;
#106 = PERSON_AND_ORGANIZATION ( #61, #322 ) ;
#107 = CARTESIAN_POINT ( 'NONE',  ( -7.572830950000000100E-013, 9.500000000000000000, -5.816880399999999500E-016 ) ) ;
#108 = ADVANCED_FACE ( 'NONE', ( #275 ), #126, .T. ) ;
#109 = VERTEX_POINT ( 'NONE', #91 ) ;
#110 = APPLICATION_PROTOCOL_DEFINITION ( 'international standard', 'config_control_design', 1994, #259 ) ;
#111 = EDGE_CURVE ( 'NONE', #248, #287, #68, .T. ) ;
#112 = DIRECTION ( 'NONE',  ( -7.971401000000000600E-014, 1.000000000000000000, -6.123032000000000300E-017 ) ) ;
#113 = PERSON_AND_ORGANIZATION ( #61, #322 ) ;
#114 = ORIENTED_EDGE ( 'NONE', *, *, #45, .F. ) ;
#115 = PERSON_AND_ORGANIZATION ( #61, #322 ) ;
#116 = CALENDAR_DATE ( 2024, 10, 6 ) ;
#117 = AXIS2_PLACEMENT_3D ( 'NONE', #50, #204, #232 ) ;
#118 = CIRCLE ( 'NONE', #243, 10.00000000000000000 ) ;
#119 = EDGE_CURVE ( 'NONE', #182, #214, #118, .T. ) ;
#120 = PERSON_AND_ORGANIZATION ( #61, #322 ) ;
#121 = CARTESIAN_POINT ( 'NONE',  ( -3.782741534602559300E-013, -1.836909600301537500E-016, -3.000000000000000000 ) ) ;
#122 = DIRECTION ( 'NONE',  ( -0.7071067805518995700, -0.7071067818211953500, 4.329637452507852100E-017 ) ) ;
#123 = ORIENTED_EDGE ( 'NONE', *, *, #219, .F. ) ;
#124 = DIRECTION ( 'NONE',  ( 0.0000000000000000000, 0.0000000000000000000, 1.000000000000000000 ) ) ;
#125 = DATE_AND_TIME ( #276, #201 ) ;
#126 = CYLINDRICAL_SURFACE ( 'NONE', #174, 3.000000000000000000 ) ;
#127 = AXIS2_PLACEMENT_3D ( 'NONE', #133, #185, #235 ) ;
#128 = DIRECTION ( 'NONE',  ( 0.0000000000000000000, 0.0000000000000000000, -1.000000000000000000 ) ) ;
#129 = APPROVAL_STATUS ( 'not_yet_approved' ) ;
#130 = ADVANCED_FACE ( 'NONE', ( #9, #26 ), #140, .T. ) ;
#131 = DATE_TIME_ROLE ( 'creation_date' ) ;
#132 = EDGE_LOOP ( 'NONE', ( #114, #99 ) ) ;
#133 = CARTESIAN_POINT ( 'NONE',  ( 0.0000000000000000000, 0.0000000000000000000, 0.0000000000000000000 ) ) ;
#134 = APPLICATION_CONTEXT ( 'configuration controlled 3d designs of mechanical parts and assemblies' ) ;
#135 = CARTESIAN_POINT ( 'NONE',  ( -7.572830950000000100E-013, 9.500000000000000000, -5.816880399999999500E-016 ) ) ;
#136 = SECURITY_CLASSIFICATION ( '', '', #237 ) ;
#137 = MECHANICAL_CONTEXT ( 'NONE', #134, 'mechanical' ) ;
#138 = EDGE_CURVE ( 'NONE', #196, #289, #191, .T. ) ;
#139 = FACE_OUTER_BOUND ( 'NONE', #64, .T. ) ;
#140 = PLANE ( 'NONE',  #172 ) ;
#141 = ORIENTED_EDGE ( 'NONE', *, *, #302, .F. ) ;
#142 = DIRECTION ( 'NONE',  ( 0.0000000000000000000, 0.0000000000000000000, 1.000000000000000000 ) ) ;
#143 = AXIS2_PLACEMENT_3D ( 'NONE', #192, #269, #266 ) ;
#144 = VECTOR ( 'NONE', #41, 1000.000000000000100 ) ;
#145 = ORIENTED_EDGE ( 'NONE', *, *, #207, .F. ) ;
#146 = PRODUCT_DEFINITION_FORMATION_WITH_SPECIFIED_SOURCE ( 'ANY', '', #238, .NOT_KNOWN. ) ;
#147 = EDGE_CURVE ( 'NONE', #248, #95, #48, .T. ) ;
#148 = ORIENTED_EDGE ( 'NONE', *, *, #138, .F. ) ;
#149 = ORIENTED_EDGE ( 'NONE', *, *, #73, .F. ) ;
#150 = CARTESIAN_POINT ( 'NONE',  ( -2.999999996410965600, 9.499999999999760200, -5.816880399999999500E-016 ) ) ;
#151 = CC_DESIGN_PERSON_AND_ORGANIZATION_ASSIGNMENT ( #101, #13, ( #146 ) ) ;
#152 = DIRECTION ( 'NONE',  ( -7.971401000000000600E-014, 1.000000000000000000, -6.123032000000000300E-017 ) ) ;
#153 = CIRCLE ( 'NONE', #117, 2.500000000000000000 ) ;
#154 = DIRECTION ( 'NONE',  ( 7.971401000000000600E-014, -1.000000000000000000, 6.123032000000000300E-017 ) ) ;
#155 = CARTESIAN_POINT ( 'NONE',  ( -2.750000000000799800, 9.999999999999779700, -2.750000000000000000 ) ) ;
#156 =( NAMED_UNIT ( * ) PLANE_ANGLE_UNIT ( ) SI_UNIT ( $, .RADIAN. ) );
#157 = ADVANCED_FACE ( 'NONE', ( #272 ), #199, .T. ) ;
#158 = FACE_OUTER_BOUND ( 'NONE', #25, .T. ) ;
#159 = EDGE_CURVE ( 'NONE', #214, #182, #163, .T. ) ;
#160 = UNCERTAINTY_MEASURE_WITH_UNIT (LENGTH_MEASURE( 1.000000000000000100E-005 ), #38, 'distance_accuracy_value', 'NONE');
#161 = CARTESIAN_POINT ( 'NONE',  ( 1.295352662500000100E-012, -16.25000000000000000, 9.949926999999999300E-016 ) ) ;
#162 = APPROVAL_PERSON_ORGANIZATION ( #46, #245, #34 ) ;
#163 = CIRCLE ( 'NONE', #202, 10.00000000000000000 ) ;
#164 = DIRECTION ( 'NONE',  ( -7.971401000000000600E-014, 1.000000000000000000, -6.123032000000000300E-017 ) ) ;
#165 = PLANE ( 'NONE',  #318 ) ;
#166 = PRODUCT_RELATED_PRODUCT_CATEGORY ( 'detail', '', ( #238 ) ) ;
#167 = EDGE_CURVE ( 'NONE', #265, #95, #29, .T. ) ;
#168 = ORIENTED_EDGE ( 'NONE', *, *, #138, .T. ) ;
#169 = DIRECTION ( 'NONE',  ( 4.880914340783199700E-030, -6.123032000000000300E-017, -1.000000000000000000 ) ) ;
#170 = EDGE_LOOP ( 'NONE', ( #148, #277, #234, #75 ) ) ;
#171 = LOCAL_TIME ( 11, 24, 3.000000000000000000, #96 ) ;
#172 = AXIS2_PLACEMENT_3D ( 'NONE', #315, #218, #169 ) ;
#173 = EDGE_LOOP ( 'NONE', ( #97, #21 ) ) ;
#174 = AXIS2_PLACEMENT_3D ( 'NONE', #43, #16, #142 ) ;
#175 = APPROVAL_DATE_TIME ( #312, #245 ) ;
#176 = APPROVAL ( #10, 'UNSPECIFIED' ) ;
#177 = CARTESIAN_POINT ( 'NONE',  ( -7.572830950000000100E-013, 9.500000000000000000, -5.816880399999999500E-016 ) ) ;
#178 = CARTESIAN_POINT ( 'NONE',  ( 5.990797217991473200E-013, -6.123031999522450500E-016, -10.00000000000000000 ) ) ;
#179 = LOCAL_TIME ( 11, 24, 3.000000000000000000, #53 ) ;
#180 = CARTESIAN_POINT ( 'NONE',  ( -7.572830950000000100E-013, 9.500000000000000000, -5.816880399999999500E-016 ) ) ;
#181 = EDGE_CURVE ( 'NONE', #89, #109, #153, .T. ) ;
#182 = VERTEX_POINT ( 'NONE', #308 ) ;
#183 = APPROVAL_STATUS ( 'not_yet_approved' ) ;
#184 = DATE_AND_TIME ( #228, #298 ) ;
#185 = DIRECTION ( 'NONE',  ( 0.0000000000000000000, 0.0000000000000000000, 1.000000000000000000 ) ) ;
#186 = AXIS2_PLACEMENT_3D ( 'NONE', #135, #12, #40 ) ;
#187 = ORIENTED_EDGE ( 'NONE', *, *, #73, .T. ) ;
#188 = CARTESIAN_POINT ( 'NONE',  ( 1.295352662500000100E-012, -16.25000000000000000, 3.000000000000000900 ) ) ;
#189 = DATE_AND_TIME ( #116, #256 ) ;
#190 = DIRECTION ( 'NONE',  ( 4.880914340783199700E-030, -6.123032000000000300E-017, -1.000000000000000000 ) ) ;
#191 = CIRCLE ( 'NONE', #104, 10.00000000000000000 ) ;
#192 = CARTESIAN_POINT ( 'NONE',  ( 0.0000000000000000000, 0.0000000000000000000, 0.0000000000000000000 ) ) ;
#193 = EDGE_CURVE ( 'NONE', #289, #182, #195, .T. ) ;
#194 = CC_DESIGN_PERSON_AND_ORGANIZATION_ASSIGNMENT ( #113, #213, ( #146 ) ) ;
#195 = LINE ( 'NONE', #105, #60 ) ;
#196 = VERTEX_POINT ( 'NONE', #77 ) ;
#197 = LINE ( 'NONE', #188, #310 ) ;
#198 = EDGE_LOOP ( 'NONE', ( #149, #6, #203, #145, #72 ) ) ;
#199 = PLANE ( 'NONE',  #278 ) ;
#200 = CARTESIAN_POINT ( 'NONE',  ( 1.295720056539744100E-012, -16.25000000000000000, -2.999999999999999100 ) ) ;
#201 = LOCAL_TIME ( 11, 24, 3.000000000000000000, #255 ) ;
#202 = AXIS2_PLACEMENT_3D ( 'NONE', #5, #258, #51 ) ;
#203 = ORIENTED_EDGE ( 'NONE', *, *, #219, .T. ) ;
#204 = DIRECTION ( 'NONE',  ( 7.971401000000000600E-014, -1.000000000000000000, 6.123032000000000300E-017 ) ) ;
#205 = DIRECTION ( 'NONE',  ( 7.971401000000000600E-014, -1.000000000000000000, 6.123032000000000300E-017 ) ) ;
#206 = FACE_OUTER_BOUND ( 'NONE', #170, .T. ) ;
#207 = EDGE_CURVE ( 'NONE', #223, #265, #55, .T. ) ;
#208 = ADVANCED_FACE ( 'NONE', ( #251 ), #86, .T. ) ;
#209 = LINE ( 'NONE', #69, #144 ) ;
#210 = PERSON_AND_ORGANIZATION_ROLE ( 'design_owner' ) ;
#211 = DIRECTION ( 'NONE',  ( 7.971401000000000600E-014, -1.000000000000000000, 6.123032000000000300E-017 ) ) ;
#212 = ADVANCED_FACE ( 'NONE', ( #14 ), #70, .T. ) ;
#213 = PERSON_AND_ORGANIZATION_ROLE ( 'design_supplier' ) ;
#214 = VERTEX_POINT ( 'NONE', #178 ) ;
#215 = PERSON_AND_ORGANIZATION ( #61, #322 ) ;
#216 = DIRECTION ( 'NONE',  ( -7.971401000000000600E-014, 1.000000000000000000, -6.123032000000000300E-017 ) ) ;
#217 = VERTEX_POINT ( 'NONE', #250 ) ;
#218 = DIRECTION ( 'NONE',  ( -7.971401000000000600E-014, 1.000000000000000000, -6.123032000000000300E-017 ) ) ;
#219 = EDGE_CURVE ( 'NONE', #89, #265, #74, .T. ) ;
#220 = CARTESIAN_POINT ( 'NONE',  ( 0.0000000000000000000, 0.0000000000000000000, 0.0000000000000000000 ) ) ;
#221 = ORIENTED_EDGE ( 'NONE', *, *, #181, .T. ) ;
#222 = CIRCLE ( 'NONE', #79, 3.000000000000000000 ) ;
#223 = VERTEX_POINT ( 'NONE', #305 ) ;
#224 = EDGE_CURVE ( 'NONE', #217, #223, #22, .T. ) ;
#225 = ORIENTED_EDGE ( 'NONE', *, *, #39, .T. ) ;
#226 = CC_DESIGN_SECURITY_CLASSIFICATION ( #136, ( #146 ) ) ;
#227 = DIRECTION ( 'NONE',  ( 7.971401000000000600E-014, -1.000000000000000000, 6.123032000000000300E-017 ) ) ;
#228 = CALENDAR_DATE ( 2024, 10, 6 ) ;
#229 = DIRECTION ( 'NONE',  ( -7.971401000000000600E-014, 1.000000000000000000, -6.123032000000000300E-017 ) ) ;
#230 = ORIENTED_EDGE ( 'NONE', *, *, #67, .F. ) ;
#231 = CARTESIAN_POINT ( 'NONE',  ( 1.295352662500000100E-012, -16.25000000000000000, 9.949926999999999300E-016 ) ) ;
#232 = DIRECTION ( 'NONE',  ( 0.0000000000000000000, 0.0000000000000000000, -1.000000000000000000 ) ) ;
#233 = DIRECTION ( 'NONE',  ( -1.000000000000000000, -7.979727989493312600E-014, 0.0000000000000000000 ) ) ;
#234 = ORIENTED_EDGE ( 'NONE', *, *, #159, .T. ) ;
#235 = DIRECTION ( 'NONE',  ( 1.000000000000000000, 0.0000000000000000000, 0.0000000000000000000 ) ) ;
#236 = VECTOR ( 'NONE', #229, 1000.000000000000000 ) ;
#237 = SECURITY_CLASSIFICATION_LEVEL ( 'unclassified' ) ;
#238 = PRODUCT ( '3_842_510_464_Bosch', '3_842_510_464_Bosch', '', ( #137 ) ) ;
#239 = DIRECTION ( 'NONE',  ( 0.0000000000000000000, 0.0000000000000000000, -1.000000000000000000 ) ) ;
#240 = AXIS2_PLACEMENT_3D ( 'NONE', #42, #316, #239 ) ;
#241 = CARTESIAN_POINT ( 'NONE',  ( 0.0000000000000000000, 0.0000000000000000000, 0.0000000000000000000 ) ) ;
#242 = ORIENTED_EDGE ( 'NONE', *, *, #119, .F. ) ;
#243 = AXIS2_PLACEMENT_3D ( 'NONE', #220, #296, #295 ) ;
#244 = CALENDAR_DATE ( 2024, 10, 6 ) ;
#245 = APPROVAL ( #129, 'UNSPECIFIED' ) ;
#246 =( GEOMETRIC_REPRESENTATION_CONTEXT ( 3 ) GLOBAL_UNCERTAINTY_ASSIGNED_CONTEXT ( ( #160 ) ) GLOBAL_UNIT_ASSIGNED_CONTEXT ( ( #38, #156, #85 ) ) REPRESENTATION_CONTEXT ( 'NONE', 'WORKASPACE' ) );
#247 = CIRCLE ( 'NONE', #47, 10.00000000000000000 ) ;
#248 = VERTEX_POINT ( 'NONE', #121 ) ;
#249 = DATE_AND_TIME ( #58, #179 ) ;
#250 = CARTESIAN_POINT ( 'NONE',  ( 2.999999996409451300, 9.500000000000239800, -9.490820793045832700E-016 ) ) ;
#251 = FACE_OUTER_BOUND ( 'NONE', #282, .T. ) ;
#252 = DIRECTION ( 'NONE',  ( -7.971401000000000600E-014, 1.000000000000000000, -6.123032000000000300E-017 ) ) ;
#253 = ORIENTED_EDGE ( 'NONE', *, *, #167, .T. ) ;
#254 = AXIS2_PLACEMENT_3D ( 'NONE', #107, #227, #3 ) ;
#255 = COORDINATED_UNIVERSAL_TIME_OFFSET ( 1, 0, .AHEAD. ) ;
#256 = LOCAL_TIME ( 11, 24, 3.000000000000000000, #301 ) ;
#257 = ORIENTED_EDGE ( 'NONE', *, *, #193, .T. ) ;
#258 = DIRECTION ( 'NONE',  ( 7.971401000000000600E-014, -1.000000000000000000, 6.123032000000000300E-017 ) ) ;
#259 = APPLICATION_CONTEXT ( 'configuration controlled 3d designs of mechanical parts and assemblies' ) ;
#260 = ADVANCED_FACE ( 'NONE', ( #139 ), #274, .T. ) ;
#261 = CARTESIAN_POINT ( 'NONE',  ( -9.167111150000000000E-013, 11.50000000000000000, -7.041486799999999600E-016 ) ) ;
#262 = FACE_OUTER_BOUND ( 'NONE', #198, .T. ) ;
#263 = APPROVAL ( #183, 'UNSPECIFIED' ) ;
#264 = AXIS2_PLACEMENT_3D ( 'NONE', #161, #112, #82 ) ;
#265 = VERTEX_POINT ( 'NONE', #150 ) ;
#266 = DIRECTION ( 'NONE',  ( 4.880914340783199000E-030, -6.123032000000000300E-017, -1.000000000000000000 ) ) ;
#267 = APPROVAL_DATE_TIME ( #125, #176 ) ;
#268 = DIRECTION ( 'NONE',  ( -7.971401000000000600E-014, 1.000000000000000000, -6.123032000000000300E-017 ) ) ;
#269 = DIRECTION ( 'NONE',  ( -7.971401000000000600E-014, 1.000000000000000000, -6.123032000000000300E-017 ) ) ;
#270 = ORIENTED_EDGE ( 'NONE', *, *, #147, .F. ) ;
#271 = CC_DESIGN_PERSON_AND_ORGANIZATION_ASSIGNMENT ( #36, #62, ( #136 ) ) ;
#272 = FACE_OUTER_BOUND ( 'NONE', #173, .T. ) ;
#273 = ORIENTED_EDGE ( 'NONE', *, *, #167, .F. ) ;
#274 = CONICAL_SURFACE ( 'NONE', #18, 1.000000000000000000, 0.7853981625000003900 ) ;
#275 = FACE_OUTER_BOUND ( 'NONE', #93, .T. ) ;
#276 = CALENDAR_DATE ( 2024, 10, 6 ) ;
#277 = ORIENTED_EDGE ( 'NONE', *, *, #94, .T. ) ;
#278 = AXIS2_PLACEMENT_3D ( 'NONE', #155, #103, #281 ) ;
#279 = DIRECTION ( 'NONE',  ( 7.971401000000000600E-014, -1.000000000000000000, 6.123032000000000300E-017 ) ) ;
#280 = AXIS2_PLACEMENT_3D ( 'NONE', #231, #152, #80 ) ;
#281 = DIRECTION ( 'NONE',  ( 4.880914340783199700E-030, -6.123032000000000300E-017, -1.000000000000000000 ) ) ;
#282 = EDGE_LOOP ( 'NONE', ( #300, #141, #257, #98 ) ) ;
#283 = DIRECTION ( 'NONE',  ( 7.971401000000000600E-014, -1.000000000000000000, 6.123032000000000300E-017 ) ) ;
#284 = CC_DESIGN_APPROVAL ( #245, ( #146 ) ) ;
#285 = ADVANCED_FACE ( 'NONE', ( #206 ), #8, .T. ) ;
#286 = CARTESIAN_POINT ( 'NONE',  ( 1.195710150000000000E-012, -15.00000000000000000, 9.184547999999998900E-016 ) ) ;
#287 = VERTEX_POINT ( 'NONE', #290 ) ;
#288 = DIRECTION ( 'NONE',  ( -1.000000000000000000, -7.979727989493312600E-014, 0.0000000000000000000 ) ) ;
#289 = VERTEX_POINT ( 'NONE', #11 ) ;
#290 = CARTESIAN_POINT ( 'NONE',  ( -3.786415475000002100E-013, 1.836909599698169800E-016, 3.000000000000000000 ) ) ;
#291 = APPLICATION_PROTOCOL_DEFINITION ( 'international standard', 'config_control_design', 1994, #134 ) ;
#292 = ADVANCED_FACE ( 'NONE', ( #262 ), #319, .T. ) ;
#293 = APPROVAL_ROLE ( '' ) ;
#294 = ORIENTED_EDGE ( 'NONE', *, *, #224, .T. ) ;
#295 = DIRECTION ( 'NONE',  ( 4.880914340783199700E-030, -6.123032000000000300E-017, -1.000000000000000000 ) ) ;
#296 = DIRECTION ( 'NONE',  ( 7.971401000000000600E-014, -1.000000000000000000, 6.123032000000000300E-017 ) ) ;
#297 = ORIENTED_EDGE ( 'NONE', *, *, #67, .T. ) ;
#298 = LOCAL_TIME ( 11, 24, 3.000000000000000000, #304 ) ;
#299 = ORIENTED_EDGE ( 'NONE', *, *, #159, .F. ) ;
#300 = ORIENTED_EDGE ( 'NONE', *, *, #94, .F. ) ;
#301 = COORDINATED_UNIVERSAL_TIME_OFFSET ( 1, 0, .AHEAD. ) ;
#302 = EDGE_CURVE ( 'NONE', #289, #196, #247, .T. ) ;
#303 = CIRCLE ( 'NONE', #240, 2.500000000000000000 ) ;
#304 = COORDINATED_UNIVERSAL_TIME_OFFSET ( 1, 0, .AHEAD. ) ;
#305 = CARTESIAN_POINT ( 'NONE',  ( -3.786415475000097500E-013, 9.500000000000000000, 2.999999999999999600 ) ) ;
#306 = CARTESIAN_POINT ( 'NONE',  ( -9.167111150000000000E-013, 11.50000000000000000, -7.041486799999999600E-016 ) ) ;
#307 = AXIS2_PLACEMENT_3D ( 'NONE', #180, #279, #32 ) ;
#308 = CARTESIAN_POINT ( 'NONE',  ( 5.978550749999998200E-013, 6.123032000476574800E-016, 10.00000000000000000 ) ) ;
#309 = SHAPE_DEFINITION_REPRESENTATION ( #71, #100 ) ;
#310 = VECTOR ( 'NONE', #164, 1000.000000000000000 ) ;
#311 = DATE_TIME_ROLE ( 'classification_date' ) ;
#312 = DATE_AND_TIME ( #244, #171 ) ;
#313 = DIRECTION ( 'NONE',  ( 0.0000000000000000000, 0.0000000000000000000, -1.000000000000000000 ) ) ;
#314 = APPROVAL_DATE_TIME ( #189, #263 ) ;
#315 = CARTESIAN_POINT ( 'NONE',  ( -11.00000000000000000, -8.775276435199999200E-013, -11.00000000000000000 ) ) ;
#316 = DIRECTION ( 'NONE',  ( 7.971401000000000600E-014, -1.000000000000000000, 6.123032000000000300E-017 ) ) ;
#317 = ORIENTED_EDGE ( 'NONE', *, *, #111, .T. ) ;
#318 = AXIS2_PLACEMENT_3D ( 'NONE', #19, #268, #190 ) ;
#319 = CONICAL_SURFACE ( 'NONE', #31, 1.000000000000000000, 0.7853981625000003900 ) ;
#320 = DESIGN_CONTEXT ( 'detailed design', #259, 'design' ) ;
#321 = ORIENTED_EDGE ( 'NONE', *, *, #302, .T. ) ;
#322 = ORGANIZATION ( 'UNSPECIFIED', 'UNSPECIFIED', '' ) ;
#323 = AXIS2_PLACEMENT_3D ( 'NONE', #102, #252, #124 ) ;
#324 = CLOSED_SHELL ( 'NONE', ( #285, #108, #260, #292, #157, #212, #130, #208, #30 ) ) ;
#325 = AXIS2_PLACEMENT_3D ( 'NONE', #177, #52, #54 ) ;
ENDSEC;
END-ISO-10303-21;
