ISO-10303-21;
HEADER;
/* Generated by software containing ST-Developer
 * from STEP Tools, Inc. (www.steptools.com) 
 */

FILE_DESCRIPTION(
/* description */ ('SLIDING BLOCK PROFILE'),
/* implementation_level */ '2;1');

FILE_NAME(
/* name */ '3842542694.stp',
/* time_stamp */ '2026-03-17T09:37:43+01:00',
/* author */ ('andreas.svensson'),
/* organization */ (''),
/* preprocessor_version */ 'ST-DEVELOPER v20.1',
/* originating_system */ 'Autodesk Inventor 2026',
/* authorisation */ '');

FILE_SCHEMA (('AUTOMOTIVE_DESIGN { 1 0 10303 214 3 1 1 }'));
ENDSEC;

DATA;
#10=MECHANICAL_DESIGN_GEOMETRIC_PRESENTATION_REPRESENTATION('',(#13),#489);
#11=SHAPE_REPRESENTATION_RELATIONSHIP('SRR','None',#496,#12);
#12=ADVANCED_BREP_SHAPE_REPRESENTATION('',(#14),#488);
#13=STYLED_ITEM('',(#506),#14);
#14=MANIFOLD_SOLID_BREP('Solid1',#296);
#15=FACE_OUTER_BOUND('',#30,.T.);
#16=FACE_OUTER_BOUND('',#31,.T.);
#17=FACE_OUTER_BOUND('',#32,.T.);
#18=FACE_OUTER_BOUND('',#33,.T.);
#19=FACE_OUTER_BOUND('',#34,.T.);
#20=FACE_OUTER_BOUND('',#35,.T.);
#21=FACE_OUTER_BOUND('',#36,.T.);
#22=FACE_OUTER_BOUND('',#37,.T.);
#23=FACE_OUTER_BOUND('',#38,.T.);
#24=FACE_OUTER_BOUND('',#39,.T.);
#25=FACE_OUTER_BOUND('',#40,.T.);
#26=FACE_OUTER_BOUND('',#41,.T.);
#27=FACE_OUTER_BOUND('',#42,.T.);
#28=FACE_OUTER_BOUND('',#43,.T.);
#29=FACE_OUTER_BOUND('',#44,.T.);
#30=EDGE_LOOP('',(#188,#189,#190,#191,#192,#193,#194,#195,#196,#197,#198,
#199,#200));
#31=EDGE_LOOP('',(#201,#202,#203,#204));
#32=EDGE_LOOP('',(#205,#206,#207,#208,#209,#210,#211,#212,#213,#214,#215,
#216,#217));
#33=EDGE_LOOP('',(#218,#219,#220,#221));
#34=EDGE_LOOP('',(#222,#223,#224,#225));
#35=EDGE_LOOP('',(#226,#227,#228,#229));
#36=EDGE_LOOP('',(#230,#231,#232,#233));
#37=EDGE_LOOP('',(#234,#235,#236,#237));
#38=EDGE_LOOP('',(#238,#239,#240,#241));
#39=EDGE_LOOP('',(#242,#243,#244,#245));
#40=EDGE_LOOP('',(#246,#247,#248,#249));
#41=EDGE_LOOP('',(#250,#251,#252,#253));
#42=EDGE_LOOP('',(#254,#255,#256,#257));
#43=EDGE_LOOP('',(#258,#259,#260,#261));
#44=EDGE_LOOP('',(#262,#263,#264,#265));
#45=LINE('',#409,#84);
#46=LINE('',#411,#85);
#47=LINE('',#413,#86);
#48=LINE('',#415,#87);
#49=LINE('',#417,#88);
#50=LINE('',#419,#89);
#51=LINE('',#421,#90);
#52=LINE('',#423,#91);
#53=LINE('',#425,#92);
#54=LINE('',#427,#93);
#55=LINE('',#429,#94);
#56=LINE('',#431,#95);
#57=LINE('',#432,#96);
#58=LINE('',#436,#97);
#59=LINE('',#437,#98);
#60=LINE('',#438,#99);
#61=LINE('',#441,#100);
#62=LINE('',#443,#101);
#63=LINE('',#445,#102);
#64=LINE('',#447,#103);
#65=LINE('',#449,#104);
#66=LINE('',#451,#105);
#67=LINE('',#453,#106);
#68=LINE('',#455,#107);
#69=LINE('',#457,#108);
#70=LINE('',#459,#109);
#71=LINE('',#461,#110);
#72=LINE('',#462,#111);
#73=LINE('',#464,#112);
#74=LINE('',#466,#113);
#75=LINE('',#468,#114);
#76=LINE('',#470,#115);
#77=LINE('',#472,#116);
#78=LINE('',#473,#117);
#79=LINE('',#475,#118);
#80=LINE('',#477,#119);
#81=LINE('',#478,#120);
#82=LINE('',#480,#121);
#83=LINE('',#483,#122);
#84=VECTOR('',#338,2.82842712474619);
#85=VECTOR('',#339,1.);
#86=VECTOR('',#340,2.75);
#87=VECTOR('',#341,1.);
#88=VECTOR('',#342,2.1339745962156);
#89=VECTOR('',#343,1.);
#90=VECTOR('',#344,1.);
#91=VECTOR('',#345,2.1339745962156);
#92=VECTOR('',#346,1.);
#93=VECTOR('',#347,2.75);
#94=VECTOR('',#348,1.);
#95=VECTOR('',#349,2.82842712474619);
#96=VECTOR('',#350,7.5);
#97=VECTOR('',#353,2.82842712474619);
#98=VECTOR('',#354,1000.);
#99=VECTOR('',#355,1000.);
#100=VECTOR('',#358,7.5);
#101=VECTOR('',#359,2.82842712474619);
#102=VECTOR('',#360,1.);
#103=VECTOR('',#361,2.75);
#104=VECTOR('',#362,1.);
#105=VECTOR('',#363,2.1339745962156);
#106=VECTOR('',#364,1.);
#107=VECTOR('',#365,1.);
#108=VECTOR('',#366,2.1339745962156);
#109=VECTOR('',#367,1.);
#110=VECTOR('',#368,2.75);
#111=VECTOR('',#369,1.);
#112=VECTOR('',#372,1000.);
#113=VECTOR('',#375,1000.);
#114=VECTOR('',#378,1000.);
#115=VECTOR('',#381,1000.);
#116=VECTOR('',#384,1000.);
#117=VECTOR('',#385,1000.);
#118=VECTOR('',#388,1000.);
#119=VECTOR('',#391,1000.);
#120=VECTOR('',#392,1000.);
#121=VECTOR('',#395,1000.);
#122=VECTOR('',#400,1000.);
#123=VERTEX_POINT('',#407);
#124=VERTEX_POINT('',#408);
#125=VERTEX_POINT('',#410);
#126=VERTEX_POINT('',#412);
#127=VERTEX_POINT('',#414);
#128=VERTEX_POINT('',#416);
#129=VERTEX_POINT('',#418);
#130=VERTEX_POINT('',#420);
#131=VERTEX_POINT('',#422);
#132=VERTEX_POINT('',#424);
#133=VERTEX_POINT('',#426);
#134=VERTEX_POINT('',#428);
#135=VERTEX_POINT('',#430);
#136=VERTEX_POINT('',#434);
#137=VERTEX_POINT('',#435);
#138=VERTEX_POINT('',#440);
#139=VERTEX_POINT('',#442);
#140=VERTEX_POINT('',#444);
#141=VERTEX_POINT('',#446);
#142=VERTEX_POINT('',#448);
#143=VERTEX_POINT('',#450);
#144=VERTEX_POINT('',#452);
#145=VERTEX_POINT('',#454);
#146=VERTEX_POINT('',#456);
#147=VERTEX_POINT('',#458);
#148=VERTEX_POINT('',#460);
#149=EDGE_CURVE('',#123,#124,#45,.T.);
#150=EDGE_CURVE('',#123,#125,#46,.T.);
#151=EDGE_CURVE('',#125,#126,#47,.T.);
#152=EDGE_CURVE('',#127,#126,#48,.T.);
#153=EDGE_CURVE('',#127,#128,#49,.T.);
#154=EDGE_CURVE('',#129,#128,#50,.T.);
#155=EDGE_CURVE('',#130,#129,#51,.T.);
#156=EDGE_CURVE('',#130,#131,#52,.T.);
#157=EDGE_CURVE('',#131,#132,#53,.T.);
#158=EDGE_CURVE('',#132,#133,#54,.T.);
#159=EDGE_CURVE('',#133,#134,#55,.T.);
#160=EDGE_CURVE('',#134,#135,#56,.T.);
#161=EDGE_CURVE('',#135,#124,#57,.T.);
#162=EDGE_CURVE('',#136,#137,#58,.T.);
#163=EDGE_CURVE('',#136,#123,#59,.T.);
#164=EDGE_CURVE('',#137,#124,#60,.T.);
#165=EDGE_CURVE('',#137,#138,#61,.T.);
#166=EDGE_CURVE('',#138,#139,#62,.T.);
#167=EDGE_CURVE('',#139,#140,#63,.T.);
#168=EDGE_CURVE('',#140,#141,#64,.T.);
#169=EDGE_CURVE('',#141,#142,#65,.T.);
#170=EDGE_CURVE('',#142,#143,#66,.T.);
#171=EDGE_CURVE('',#143,#144,#67,.T.);
#172=EDGE_CURVE('',#144,#145,#68,.T.);
#173=EDGE_CURVE('',#145,#146,#69,.T.);
#174=EDGE_CURVE('',#146,#147,#70,.T.);
#175=EDGE_CURVE('',#147,#148,#71,.T.);
#176=EDGE_CURVE('',#148,#136,#72,.T.);
#177=EDGE_CURVE('',#138,#135,#73,.T.);
#178=EDGE_CURVE('',#139,#134,#74,.T.);
#179=EDGE_CURVE('',#140,#133,#75,.T.);
#180=EDGE_CURVE('',#141,#132,#76,.T.);
#181=EDGE_CURVE('',#147,#126,#77,.T.);
#182=EDGE_CURVE('',#148,#125,#78,.T.);
#183=EDGE_CURVE('',#142,#131,#79,.T.);
#184=EDGE_CURVE('',#145,#128,#80,.T.);
#185=EDGE_CURVE('',#146,#127,#81,.T.);
#186=EDGE_CURVE('',#143,#130,#82,.T.);
#187=EDGE_CURVE('',#129,#144,#83,.T.);
#188=ORIENTED_EDGE('',*,*,#149,.F.);
#189=ORIENTED_EDGE('',*,*,#150,.T.);
#190=ORIENTED_EDGE('',*,*,#151,.T.);
#191=ORIENTED_EDGE('',*,*,#152,.F.);
#192=ORIENTED_EDGE('',*,*,#153,.T.);
#193=ORIENTED_EDGE('',*,*,#154,.F.);
#194=ORIENTED_EDGE('',*,*,#155,.F.);
#195=ORIENTED_EDGE('',*,*,#156,.T.);
#196=ORIENTED_EDGE('',*,*,#157,.T.);
#197=ORIENTED_EDGE('',*,*,#158,.T.);
#198=ORIENTED_EDGE('',*,*,#159,.T.);
#199=ORIENTED_EDGE('',*,*,#160,.T.);
#200=ORIENTED_EDGE('',*,*,#161,.T.);
#201=ORIENTED_EDGE('',*,*,#162,.F.);
#202=ORIENTED_EDGE('',*,*,#163,.T.);
#203=ORIENTED_EDGE('',*,*,#149,.T.);
#204=ORIENTED_EDGE('',*,*,#164,.F.);
#205=ORIENTED_EDGE('',*,*,#165,.T.);
#206=ORIENTED_EDGE('',*,*,#166,.T.);
#207=ORIENTED_EDGE('',*,*,#167,.T.);
#208=ORIENTED_EDGE('',*,*,#168,.T.);
#209=ORIENTED_EDGE('',*,*,#169,.T.);
#210=ORIENTED_EDGE('',*,*,#170,.T.);
#211=ORIENTED_EDGE('',*,*,#171,.T.);
#212=ORIENTED_EDGE('',*,*,#172,.T.);
#213=ORIENTED_EDGE('',*,*,#173,.T.);
#214=ORIENTED_EDGE('',*,*,#174,.T.);
#215=ORIENTED_EDGE('',*,*,#175,.T.);
#216=ORIENTED_EDGE('',*,*,#176,.T.);
#217=ORIENTED_EDGE('',*,*,#162,.T.);
#218=ORIENTED_EDGE('',*,*,#161,.F.);
#219=ORIENTED_EDGE('',*,*,#177,.F.);
#220=ORIENTED_EDGE('',*,*,#165,.F.);
#221=ORIENTED_EDGE('',*,*,#164,.T.);
#222=ORIENTED_EDGE('',*,*,#166,.F.);
#223=ORIENTED_EDGE('',*,*,#177,.T.);
#224=ORIENTED_EDGE('',*,*,#160,.F.);
#225=ORIENTED_EDGE('',*,*,#178,.F.);
#226=ORIENTED_EDGE('',*,*,#167,.F.);
#227=ORIENTED_EDGE('',*,*,#178,.T.);
#228=ORIENTED_EDGE('',*,*,#159,.F.);
#229=ORIENTED_EDGE('',*,*,#179,.F.);
#230=ORIENTED_EDGE('',*,*,#168,.F.);
#231=ORIENTED_EDGE('',*,*,#179,.T.);
#232=ORIENTED_EDGE('',*,*,#158,.F.);
#233=ORIENTED_EDGE('',*,*,#180,.F.);
#234=ORIENTED_EDGE('',*,*,#175,.F.);
#235=ORIENTED_EDGE('',*,*,#181,.T.);
#236=ORIENTED_EDGE('',*,*,#151,.F.);
#237=ORIENTED_EDGE('',*,*,#182,.F.);
#238=ORIENTED_EDGE('',*,*,#169,.F.);
#239=ORIENTED_EDGE('',*,*,#180,.T.);
#240=ORIENTED_EDGE('',*,*,#157,.F.);
#241=ORIENTED_EDGE('',*,*,#183,.F.);
#242=ORIENTED_EDGE('',*,*,#173,.F.);
#243=ORIENTED_EDGE('',*,*,#184,.T.);
#244=ORIENTED_EDGE('',*,*,#153,.F.);
#245=ORIENTED_EDGE('',*,*,#185,.F.);
#246=ORIENTED_EDGE('',*,*,#156,.F.);
#247=ORIENTED_EDGE('',*,*,#186,.F.);
#248=ORIENTED_EDGE('',*,*,#170,.F.);
#249=ORIENTED_EDGE('',*,*,#183,.T.);
#250=ORIENTED_EDGE('',*,*,#152,.T.);
#251=ORIENTED_EDGE('',*,*,#181,.F.);
#252=ORIENTED_EDGE('',*,*,#174,.F.);
#253=ORIENTED_EDGE('',*,*,#185,.T.);
#254=ORIENTED_EDGE('',*,*,#154,.T.);
#255=ORIENTED_EDGE('',*,*,#184,.F.);
#256=ORIENTED_EDGE('',*,*,#172,.F.);
#257=ORIENTED_EDGE('',*,*,#187,.F.);
#258=ORIENTED_EDGE('',*,*,#155,.T.);
#259=ORIENTED_EDGE('',*,*,#187,.T.);
#260=ORIENTED_EDGE('',*,*,#171,.F.);
#261=ORIENTED_EDGE('',*,*,#186,.T.);
#262=ORIENTED_EDGE('',*,*,#176,.F.);
#263=ORIENTED_EDGE('',*,*,#182,.T.);
#264=ORIENTED_EDGE('',*,*,#150,.F.);
#265=ORIENTED_EDGE('',*,*,#163,.F.);
#266=PLANE('',#319);
#267=PLANE('',#320);
#268=PLANE('',#321);
#269=PLANE('',#322);
#270=PLANE('',#323);
#271=PLANE('',#324);
#272=PLANE('',#325);
#273=PLANE('',#326);
#274=PLANE('',#327);
#275=PLANE('',#328);
#276=PLANE('',#329);
#277=PLANE('',#330);
#278=PLANE('',#331);
#279=PLANE('',#332);
#280=PLANE('',#333);
#281=ADVANCED_FACE('',(#15),#266,.T.);
#282=ADVANCED_FACE('',(#16),#267,.T.);
#283=ADVANCED_FACE('',(#17),#268,.F.);
#284=ADVANCED_FACE('',(#18),#269,.T.);
#285=ADVANCED_FACE('',(#19),#270,.T.);
#286=ADVANCED_FACE('',(#20),#271,.T.);
#287=ADVANCED_FACE('',(#21),#272,.T.);
#288=ADVANCED_FACE('',(#22),#273,.T.);
#289=ADVANCED_FACE('',(#23),#274,.T.);
#290=ADVANCED_FACE('',(#24),#275,.T.);
#291=ADVANCED_FACE('',(#25),#276,.T.);
#292=ADVANCED_FACE('',(#26),#277,.T.);
#293=ADVANCED_FACE('',(#27),#278,.F.);
#294=ADVANCED_FACE('',(#28),#279,.F.);
#295=ADVANCED_FACE('',(#29),#280,.T.);
#296=CLOSED_SHELL('',(#281,#282,#283,#284,#285,#286,#287,#288,#289,#290,
#291,#292,#293,#294,#295));
#297=DERIVED_UNIT_ELEMENT(#300,1.);
#298=DERIVED_UNIT_ELEMENT(#491,-3.);
#299=DIMENSIONAL_EXPONENTS(0.,1.,0.,0.,0.,0.,0.);
#300=(
CONVERSION_BASED_UNIT('gram',#302)
MASS_UNIT()
NAMED_UNIT(#299)
);
#301=(
MASS_UNIT()
NAMED_UNIT(*)
SI_UNIT(.KILO.,.GRAM.)
);
#302=MASS_MEASURE_WITH_UNIT(MASS_MEASURE(0.001),#301);
#303=DERIVED_UNIT((#297,#298));
#304=MEASURE_REPRESENTATION_ITEM('density measure',
POSITIVE_RATIO_MEASURE(1.),#303);
#305=PROPERTY_DEFINITION_REPRESENTATION(#310,#307);
#306=PROPERTY_DEFINITION_REPRESENTATION(#311,#308);
#307=REPRESENTATION('material name',(#309),#488);
#308=REPRESENTATION('density',(#304),#488);
#309=DESCRIPTIVE_REPRESENTATION_ITEM('Generic','Generic');
#310=PROPERTY_DEFINITION('material property','material name',#498);
#311=PROPERTY_DEFINITION('material property','density of part',#498);
#312=DATE_TIME_ROLE('creation_date');
#313=APPLIED_DATE_AND_TIME_ASSIGNMENT(#314,#312,(#498));
#314=DATE_AND_TIME(#315,#316);
#315=CALENDAR_DATE(2026,9,3);
#316=LOCAL_TIME(9,15,37.,#317);
#317=COORDINATED_UNIVERSAL_TIME_OFFSET(0,0,.BEHIND.);
#318=AXIS2_PLACEMENT_3D('',#405,#334,#335);
#319=AXIS2_PLACEMENT_3D('',#406,#336,#337);
#320=AXIS2_PLACEMENT_3D('',#433,#351,#352);
#321=AXIS2_PLACEMENT_3D('',#439,#356,#357);
#322=AXIS2_PLACEMENT_3D('',#463,#370,#371);
#323=AXIS2_PLACEMENT_3D('',#465,#373,#374);
#324=AXIS2_PLACEMENT_3D('',#467,#376,#377);
#325=AXIS2_PLACEMENT_3D('',#469,#379,#380);
#326=AXIS2_PLACEMENT_3D('',#471,#382,#383);
#327=AXIS2_PLACEMENT_3D('',#474,#386,#387);
#328=AXIS2_PLACEMENT_3D('',#476,#389,#390);
#329=AXIS2_PLACEMENT_3D('',#479,#393,#394);
#330=AXIS2_PLACEMENT_3D('',#481,#396,#397);
#331=AXIS2_PLACEMENT_3D('',#482,#398,#399);
#332=AXIS2_PLACEMENT_3D('',#484,#401,#402);
#333=AXIS2_PLACEMENT_3D('',#485,#403,#404);
#334=DIRECTION('axis',(0.,0.,1.));
#335=DIRECTION('refdir',(1.,0.,0.));
#336=DIRECTION('center_axis',(1.,0.,0.));
#337=DIRECTION('ref_axis',(0.,1.,0.));
#338=DIRECTION('',(0.,-0.707106781186548,-0.707106781186547));
#339=DIRECTION('',(0.,0.,1.));
#340=DIRECTION('',(0.,-1.,0.));
#341=DIRECTION('',(0.,0.,-1.));
#342=DIRECTION('',(0.,-1.,0.));
#343=DIRECTION('',(0.,0.86602540378443,0.500000000000016));
#344=DIRECTION('',(0.,0.866025403784429,-0.500000000000017));
#345=DIRECTION('',(0.,-1.,0.));
#346=DIRECTION('',(0.,0.,-1.));
#347=DIRECTION('',(0.,-1.,0.));
#348=DIRECTION('',(0.,0.,-1.));
#349=DIRECTION('',(0.,0.707106781186548,-0.707106781186547));
#350=DIRECTION('',(0.,1.,0.));
#351=DIRECTION('center_axis',(2.003056E-16,0.707106781186548,-0.707106781186548));
#352=DIRECTION('ref_axis',(-1.,2.46519032881566E-32,-2.8327489613928E-16));
#353=DIRECTION('',(1.137129E-16,-0.707106781186548,-0.707106781186547));
#354=DIRECTION('',(1.,0.,0.));
#355=DIRECTION('',(1.,0.,0.));
#356=DIRECTION('center_axis',(1.,0.,0.));
#357=DIRECTION('ref_axis',(0.,1.,0.));
#358=DIRECTION('',(0.,-1.,0.));
#359=DIRECTION('',(-2.003056E-16,-0.707106781186548,0.707106781186547));
#360=DIRECTION('',(0.,0.,1.));
#361=DIRECTION('',(0.,1.,0.));
#362=DIRECTION('',(0.,0.,1.));
#363=DIRECTION('',(0.,1.,0.));
#364=DIRECTION('',(1.640493E-16,0.866025403784429,-0.500000000000017));
#365=DIRECTION('',(-5.799529E-17,0.86602540378443,0.500000000000016));
#366=DIRECTION('',(0.,1.,0.));
#367=DIRECTION('',(0.,0.,-1.));
#368=DIRECTION('',(0.,1.,0.));
#369=DIRECTION('',(0.,0.,-1.));
#370=DIRECTION('center_axis',(0.,0.,-1.));
#371=DIRECTION('ref_axis',(0.,-1.,0.));
#372=DIRECTION('',(1.,0.,0.));
#373=DIRECTION('center_axis',(1.137129E-16,-0.707106781186548,-0.707106781186548));
#374=DIRECTION('ref_axis',(0.,-0.707106781186548,0.707106781186548));
#375=DIRECTION('',(1.,0.,0.));
#376=DIRECTION('center_axis',(0.,-1.,0.));
#377=DIRECTION('ref_axis',(0.,0.,-1.));
#378=DIRECTION('',(1.,0.,0.));
#379=DIRECTION('center_axis',(0.,0.,1.));
#380=DIRECTION('ref_axis',(1.,0.,0.));
#381=DIRECTION('',(1.,0.,0.));
#382=DIRECTION('center_axis',(0.,0.,1.));
#383=DIRECTION('ref_axis',(1.,0.,0.));
#384=DIRECTION('',(1.,0.,0.));
#385=DIRECTION('',(1.,0.,0.));
#386=DIRECTION('center_axis',(0.,-1.,0.));
#387=DIRECTION('ref_axis',(0.,0.,-1.));
#388=DIRECTION('',(1.,0.,0.));
#389=DIRECTION('center_axis',(0.,0.,1.));
#390=DIRECTION('ref_axis',(1.,0.,0.));
#391=DIRECTION('',(1.,0.,0.));
#392=DIRECTION('',(1.,0.,0.));
#393=DIRECTION('center_axis',(0.,0.,1.));
#394=DIRECTION('ref_axis',(1.,0.,0.));
#395=DIRECTION('',(1.,0.,0.));
#396=DIRECTION('center_axis',(0.,1.,0.));
#397=DIRECTION('ref_axis',(1.,0.,0.));
#398=DIRECTION('center_axis',(2.229114E-16,0.500000000000017,-0.866025403784429));
#399=DIRECTION('ref_axis',(-1.,-1.72563323017096E-31,-2.57395913590876E-16));
#400=DIRECTION('',(-1.,0.,0.));
#401=DIRECTION('center_axis',(1.616811E-16,-0.500000000000017,-0.866025403784429));
#402=DIRECTION('ref_axis',(0.,-0.866025403784429,0.500000000000017));
#403=DIRECTION('center_axis',(0.,1.,0.));
#404=DIRECTION('ref_axis',(1.,0.,0.));
#405=CARTESIAN_POINT('',(0.,0.,0.));
#406=CARTESIAN_POINT('Origin',(1000.,-4.440892E-16,-4.));
#407=CARTESIAN_POINT('',(1000.,5.75,-2.));
#408=CARTESIAN_POINT('',(1000.,3.75,-4.));
#409=CARTESIAN_POINT('',(1000.,5.75,-2.));
#410=CARTESIAN_POINT('',(1000.,5.75,-1.));
#411=CARTESIAN_POINT('',(1000.,5.75,-2.));
#412=CARTESIAN_POINT('',(1000.,3.,-1.));
#413=CARTESIAN_POINT('',(1000.,5.75,-1.));
#414=CARTESIAN_POINT('',(1000.,3.,0.));
#415=CARTESIAN_POINT('',(1000.,3.,0.));
#416=CARTESIAN_POINT('',(1000.,0.8660254037844,0.));
#417=CARTESIAN_POINT('',(1000.,3.,0.));
#418=CARTESIAN_POINT('',(1000.,-4.440892E-16,-0.5));
#419=CARTESIAN_POINT('',(1000.,-4.440892E-16,-0.5));
#420=CARTESIAN_POINT('',(1000.,-0.866025403784401,0.));
#421=CARTESIAN_POINT('',(1000.,-0.866025403784401,0.));
#422=CARTESIAN_POINT('',(1000.,-3.,0.));
#423=CARTESIAN_POINT('',(1000.,-0.866025403784401,0.));
#424=CARTESIAN_POINT('',(1000.,-3.,-1.));
#425=CARTESIAN_POINT('',(1000.,-3.,0.));
#426=CARTESIAN_POINT('',(1000.,-5.75,-1.));
#427=CARTESIAN_POINT('',(1000.,-3.,-1.));
#428=CARTESIAN_POINT('',(1000.,-5.75,-2.));
#429=CARTESIAN_POINT('',(1000.,-5.75,-1.));
#430=CARTESIAN_POINT('',(1000.,-3.75,-4.));
#431=CARTESIAN_POINT('',(1000.,-5.75,-2.));
#432=CARTESIAN_POINT('',(1000.,-3.75,-4.));
#433=CARTESIAN_POINT('Origin',(1000.,3.75,-4.));
#434=CARTESIAN_POINT('',(0.,5.75000000000006,-2.00000000000022));
#435=CARTESIAN_POINT('',(0.,3.75000000000006,-4.00000000000022));
#436=CARTESIAN_POINT('',(0.,5.75000000000006,-2.00000000000022));
#437=CARTESIAN_POINT('',(0.,5.75000000000006,-2.00000000000022));
#438=CARTESIAN_POINT('',(0.,3.75000000000006,-4.00000000000022));
#439=CARTESIAN_POINT('Origin',(0.,6.084022E-14,-4.00000000000022));
#440=CARTESIAN_POINT('',(0.,-3.74999999999994,-4.00000000000022));
#441=CARTESIAN_POINT('',(0.,3.75000000000006,-4.00000000000022));
#442=CARTESIAN_POINT('',(0.,-5.74999999999994,-2.00000000000022));
#443=CARTESIAN_POINT('',(0.,-3.74999999999994,-4.00000000000022));
#444=CARTESIAN_POINT('',(0.,-5.74999999999994,-1.00000000000022));
#445=CARTESIAN_POINT('',(0.,-5.74999999999994,-2.00000000000022));
#446=CARTESIAN_POINT('',(0.,-2.99999999999994,-1.00000000000022));
#447=CARTESIAN_POINT('',(0.,-5.74999999999994,-1.00000000000022));
#448=CARTESIAN_POINT('',(0.,-2.99999999999994,-2.220446E-13));
#449=CARTESIAN_POINT('',(0.,-2.99999999999994,-1.00000000000022));
#450=CARTESIAN_POINT('',(0.,-0.866025403784339,-2.220446E-13));
#451=CARTESIAN_POINT('',(0.,-2.99999999999994,-2.220446E-13));
#452=CARTESIAN_POINT('',(0.,6.084022E-14,-0.500000000000222));
#453=CARTESIAN_POINT('',(0.,-0.866025403784339,-2.220446E-13));
#454=CARTESIAN_POINT('',(0.,0.866025403784461,-2.220446E-13));
#455=CARTESIAN_POINT('',(0.,6.084022E-14,-0.500000000000222));
#456=CARTESIAN_POINT('',(0.,3.00000000000006,-2.220446E-13));
#457=CARTESIAN_POINT('',(0.,0.866025403784461,-2.220446E-13));
#458=CARTESIAN_POINT('',(0.,3.00000000000006,-1.00000000000022));
#459=CARTESIAN_POINT('',(0.,3.00000000000006,-2.220446E-13));
#460=CARTESIAN_POINT('',(0.,5.75000000000006,-1.00000000000022));
#461=CARTESIAN_POINT('',(0.,3.00000000000006,-1.00000000000022));
#462=CARTESIAN_POINT('',(0.,5.75000000000006,-1.00000000000022));
#463=CARTESIAN_POINT('Origin',(1000.,-3.75,-4.));
#464=CARTESIAN_POINT('',(0.,-3.74999999999994,-4.00000000000022));
#465=CARTESIAN_POINT('Origin',(1000.,-5.75,-2.));
#466=CARTESIAN_POINT('',(0.,-5.74999999999994,-2.00000000000022));
#467=CARTESIAN_POINT('Origin',(1000.,-5.75,-1.));
#468=CARTESIAN_POINT('',(0.,-5.74999999999994,-1.00000000000022));
#469=CARTESIAN_POINT('Origin',(1000.,5.75,-1.));
#470=CARTESIAN_POINT('',(0.,-2.99999999999994,-1.00000000000022));
#471=CARTESIAN_POINT('Origin',(1000.,5.75,-1.));
#472=CARTESIAN_POINT('',(0.,3.00000000000006,-1.00000000000022));
#473=CARTESIAN_POINT('',(0.,5.75000000000006,-1.00000000000022));
#474=CARTESIAN_POINT('Origin',(1000.,-3.,0.));
#475=CARTESIAN_POINT('',(0.,-2.99999999999994,-2.220446E-13));
#476=CARTESIAN_POINT('Origin',(1000.,3.,0.));
#477=CARTESIAN_POINT('',(0.,0.866025403784461,-2.220446E-13));
#478=CARTESIAN_POINT('',(0.,3.00000000000006,-2.220446E-13));
#479=CARTESIAN_POINT('Origin',(1000.,3.,0.));
#480=CARTESIAN_POINT('',(0.,-0.866025403784339,-2.220446E-13));
#481=CARTESIAN_POINT('Origin',(1000.,3.,-1.));
#482=CARTESIAN_POINT('Origin',(1000.,-4.440892E-16,-0.5));
#483=CARTESIAN_POINT('',(1000.,-4.440892E-16,-0.5));
#484=CARTESIAN_POINT('Origin',(1000.,-0.866025403784401,0.));
#485=CARTESIAN_POINT('Origin',(1000.,5.75,-2.));
#486=UNCERTAINTY_MEASURE_WITH_UNIT(LENGTH_MEASURE(0.01),#490,
'DISTANCE_ACCURACY_VALUE',
'Maximum model space distance between geometric entities at asserted c
onnectivities');
#487=UNCERTAINTY_MEASURE_WITH_UNIT(LENGTH_MEASURE(0.01),#490,
'DISTANCE_ACCURACY_VALUE',
'Maximum model space distance between geometric entities at asserted c
onnectivities');
#488=(
GEOMETRIC_REPRESENTATION_CONTEXT(3)
GLOBAL_UNCERTAINTY_ASSIGNED_CONTEXT((#486))
GLOBAL_UNIT_ASSIGNED_CONTEXT((#490,#492,#493))
REPRESENTATION_CONTEXT('','3D')
);
#489=(
GEOMETRIC_REPRESENTATION_CONTEXT(3)
GLOBAL_UNCERTAINTY_ASSIGNED_CONTEXT((#487))
GLOBAL_UNIT_ASSIGNED_CONTEXT((#490,#492,#493))
REPRESENTATION_CONTEXT('','3D')
);
#490=(
LENGTH_UNIT()
NAMED_UNIT(*)
SI_UNIT(.MILLI.,.METRE.)
);
#491=(
LENGTH_UNIT()
NAMED_UNIT(*)
SI_UNIT(.CENTI.,.METRE.)
);
#492=(
NAMED_UNIT(*)
PLANE_ANGLE_UNIT()
SI_UNIT($,.RADIAN.)
);
#493=(
NAMED_UNIT(*)
SI_UNIT($,.STERADIAN.)
SOLID_ANGLE_UNIT()
);
#494=SHAPE_DEFINITION_REPRESENTATION(#495,#496);
#495=PRODUCT_DEFINITION_SHAPE('',$,#498);
#496=SHAPE_REPRESENTATION('',(#318),#488);
#497=PRODUCT_DEFINITION_CONTEXT('part definition',#502,'design');
#498=PRODUCT_DEFINITION('3842542694','3842542694',#499,#497);
#499=PRODUCT_DEFINITION_FORMATION('',$,#504);
#500=PRODUCT_RELATED_PRODUCT_CATEGORY('3842542694','3842542694',(#504));
#501=APPLICATION_PROTOCOL_DEFINITION('international standard',
'automotive_design',2009,#502);
#502=APPLICATION_CONTEXT(
'Core Data for Automotive Mechanical Design Process');
#503=PRODUCT_CONTEXT('part definition',#502,'mechanical');
#504=PRODUCT('3842542694','3842542694','SLIDING BLOCK PROFILE',(#503));
#505=PRESENTATION_STYLE_ASSIGNMENT((#507));
#506=PRESENTATION_STYLE_ASSIGNMENT((#508));
#507=SURFACE_STYLE_USAGE(.BOTH.,#513);
#508=SURFACE_STYLE_USAGE(.BOTH.,#514);
#509=SURFACE_STYLE_RENDERING_WITH_PROPERTIES($,#521,(#511));
#510=SURFACE_STYLE_RENDERING_WITH_PROPERTIES($,#522,(#512));
#511=SURFACE_STYLE_TRANSPARENT(0.);
#512=SURFACE_STYLE_TRANSPARENT(0.);
#513=SURFACE_SIDE_STYLE('',(#515,#509));
#514=SURFACE_SIDE_STYLE('',(#516,#510));
#515=SURFACE_STYLE_FILL_AREA(#517);
#516=SURFACE_STYLE_FILL_AREA(#518);
#517=FILL_AREA_STYLE('',(#519));
#518=FILL_AREA_STYLE('',(#520));
#519=FILL_AREA_STYLE_COLOUR('',#521);
#520=FILL_AREA_STYLE_COLOUR('',#522);
#521=COLOUR_RGB('',0.749019607843137,0.749019607843137,0.749019607843137);
#522=COLOUR_RGB('',0.752941176470588,0.752941176470588,0.752941176470588);
ENDSEC;
END-ISO-10303-21;
