ISO-10303-21;
HEADER;
/* Generated by software containing ST-Developer
 * from STEP Tools, Inc. (www.steptools.com) 
 */

FILE_DESCRIPTION(
/* description */ ('CORE SCREW'),
/* implementation_level */ '2;1');

FILE_NAME(
/* name */ '3842530235.stp',
/* time_stamp */ '2026-03-17T09:39:48+01:00',
/* author */ ('andreas.svensson'),
/* organization */ (''),
/* preprocessor_version */ 'ST-DEVELOPER v20.1',
/* originating_system */ 'Autodesk Inventor 2026',
/* authorisation */ '');

FILE_SCHEMA (('AUTOMOTIVE_DESIGN { 1 0 10303 214 3 1 1 }'));
ENDSEC;

DATA;
#10=MECHANICAL_DESIGN_GEOMETRIC_PRESENTATION_REPRESENTATION('',(#13),#260);
#11=SHAPE_REPRESENTATION_RELATIONSHIP('SRR','None',#267,#12);
#12=ADVANCED_BREP_SHAPE_REPRESENTATION('',(#14),#259);
#13=STYLED_ITEM('',(#277),#14);
#14=MANIFOLD_SOLID_BREP('Solid1',#134);
#15=FACE_BOUND('',#41,.T.);
#16=FACE_BOUND('',#45,.T.);
#17=PLANE('',#172);
#18=PLANE('',#173);
#19=PLANE('',#174);
#20=PLANE('',#175);
#21=CONICAL_SURFACE('',#160,7.77995818369498,0.785398162499999);
#22=CONICAL_SURFACE('',#162,5.87011699440302,0.785398162500013);
#23=CONICAL_SURFACE('',#167,5.87011699440303,0.785398162500008);
#24=FACE_OUTER_BOUND('',#34,.T.);
#25=FACE_OUTER_BOUND('',#35,.T.);
#26=FACE_OUTER_BOUND('',#36,.T.);
#27=FACE_OUTER_BOUND('',#37,.T.);
#28=FACE_OUTER_BOUND('',#38,.T.);
#29=FACE_OUTER_BOUND('',#39,.T.);
#30=FACE_OUTER_BOUND('',#40,.T.);
#31=FACE_OUTER_BOUND('',#42,.T.);
#32=FACE_OUTER_BOUND('',#43,.T.);
#33=FACE_OUTER_BOUND('',#44,.T.);
#34=EDGE_LOOP('',(#91,#92,#93,#94));
#35=EDGE_LOOP('',(#95,#96,#97,#98));
#36=EDGE_LOOP('',(#99,#100,#101,#102));
#37=EDGE_LOOP('',(#103,#104,#105,#106));
#38=EDGE_LOOP('',(#107,#108,#109,#110));
#39=EDGE_LOOP('',(#111,#112,#113,#114));
#40=EDGE_LOOP('',(#115));
#41=EDGE_LOOP('',(#116));
#42=EDGE_LOOP('',(#117));
#43=EDGE_LOOP('',(#118));
#44=EDGE_LOOP('',(#119));
#45=EDGE_LOOP('',(#120));
#46=LINE('',#227,#52);
#47=LINE('',#231,#53);
#48=LINE('',#237,#54);
#49=LINE('',#242,#55);
#50=LINE('',#245,#56);
#51=LINE('',#251,#57);
#52=VECTOR('',#182,9.77995818368919);
#53=VECTOR('',#187,7.77995818369498);
#54=VECTOR('',#194,5.87011699440302);
#55=VECTOR('',#201,6.42011699440304);
#56=VECTOR('',#204,5.87011699440303);
#57=VECTOR('',#211,4.47988300559692);
#58=CIRCLE('',#158,9.77995818368919);
#59=CIRCLE('',#159,9.77995818368919);
#60=CIRCLE('',#161,5.77995818370077);
#61=CIRCLE('',#163,6.42011699440304);
#62=CIRCLE('',#164,5.32011699440301);
#63=CIRCLE('',#166,6.42011699440304);
#64=CIRCLE('',#168,5.32011699440302);
#65=CIRCLE('',#170,4.47988300559692);
#66=CIRCLE('',#171,4.47988300559692);
#67=VERTEX_POINT('',#224);
#68=VERTEX_POINT('',#226);
#69=VERTEX_POINT('',#230);
#70=VERTEX_POINT('',#234);
#71=VERTEX_POINT('',#236);
#72=VERTEX_POINT('',#240);
#73=VERTEX_POINT('',#244);
#74=VERTEX_POINT('',#248);
#75=VERTEX_POINT('',#250);
#76=EDGE_CURVE('',#67,#67,#58,.T.);
#77=EDGE_CURVE('',#67,#68,#46,.T.);
#78=EDGE_CURVE('',#68,#68,#59,.T.);
#79=EDGE_CURVE('',#67,#69,#47,.T.);
#80=EDGE_CURVE('',#69,#69,#60,.T.);
#81=EDGE_CURVE('',#70,#70,#61,.T.);
#82=EDGE_CURVE('',#70,#71,#48,.T.);
#83=EDGE_CURVE('',#71,#71,#62,.T.);
#84=EDGE_CURVE('',#72,#72,#63,.T.);
#85=EDGE_CURVE('',#72,#70,#49,.T.);
#86=EDGE_CURVE('',#72,#73,#50,.T.);
#87=EDGE_CURVE('',#73,#73,#64,.T.);
#88=EDGE_CURVE('',#74,#74,#65,.T.);
#89=EDGE_CURVE('',#74,#75,#51,.T.);
#90=EDGE_CURVE('',#75,#75,#66,.T.);
#91=ORIENTED_EDGE('',*,*,#76,.T.);
#92=ORIENTED_EDGE('',*,*,#77,.T.);
#93=ORIENTED_EDGE('',*,*,#78,.F.);
#94=ORIENTED_EDGE('',*,*,#77,.F.);
#95=ORIENTED_EDGE('',*,*,#76,.F.);
#96=ORIENTED_EDGE('',*,*,#79,.T.);
#97=ORIENTED_EDGE('',*,*,#80,.T.);
#98=ORIENTED_EDGE('',*,*,#79,.F.);
#99=ORIENTED_EDGE('',*,*,#81,.T.);
#100=ORIENTED_EDGE('',*,*,#82,.T.);
#101=ORIENTED_EDGE('',*,*,#83,.F.);
#102=ORIENTED_EDGE('',*,*,#82,.F.);
#103=ORIENTED_EDGE('',*,*,#84,.T.);
#104=ORIENTED_EDGE('',*,*,#85,.T.);
#105=ORIENTED_EDGE('',*,*,#81,.F.);
#106=ORIENTED_EDGE('',*,*,#85,.F.);
#107=ORIENTED_EDGE('',*,*,#84,.F.);
#108=ORIENTED_EDGE('',*,*,#86,.T.);
#109=ORIENTED_EDGE('',*,*,#87,.T.);
#110=ORIENTED_EDGE('',*,*,#86,.F.);
#111=ORIENTED_EDGE('',*,*,#88,.T.);
#112=ORIENTED_EDGE('',*,*,#89,.T.);
#113=ORIENTED_EDGE('',*,*,#90,.F.);
#114=ORIENTED_EDGE('',*,*,#89,.F.);
#115=ORIENTED_EDGE('',*,*,#87,.F.);
#116=ORIENTED_EDGE('',*,*,#90,.T.);
#117=ORIENTED_EDGE('',*,*,#83,.T.);
#118=ORIENTED_EDGE('',*,*,#80,.F.);
#119=ORIENTED_EDGE('',*,*,#78,.T.);
#120=ORIENTED_EDGE('',*,*,#88,.F.);
#121=CYLINDRICAL_SURFACE('',#157,9.77995818368919);
#122=CYLINDRICAL_SURFACE('',#165,6.42011699440304);
#123=CYLINDRICAL_SURFACE('',#169,4.47988300559692);
#124=ADVANCED_FACE('',(#24),#121,.T.);
#125=ADVANCED_FACE('',(#25),#21,.T.);
#126=ADVANCED_FACE('',(#26),#22,.T.);
#127=ADVANCED_FACE('',(#27),#122,.T.);
#128=ADVANCED_FACE('',(#28),#23,.T.);
#129=ADVANCED_FACE('',(#29),#123,.T.);
#130=ADVANCED_FACE('',(#30,#15),#17,.T.);
#131=ADVANCED_FACE('',(#31),#18,.T.);
#132=ADVANCED_FACE('',(#32),#19,.T.);
#133=ADVANCED_FACE('',(#33,#16),#20,.T.);
#134=CLOSED_SHELL('',(#124,#125,#126,#127,#128,#129,#130,#131,#132,#133));
#135=DERIVED_UNIT_ELEMENT(#138,1.);
#136=DERIVED_UNIT_ELEMENT(#262,-3.);
#137=DIMENSIONAL_EXPONENTS(0.,1.,0.,0.,0.,0.,0.);
#138=(
CONVERSION_BASED_UNIT('gram',#140)
MASS_UNIT()
NAMED_UNIT(#137)
);
#139=(
MASS_UNIT()
NAMED_UNIT(*)
SI_UNIT(.KILO.,.GRAM.)
);
#140=MASS_MEASURE_WITH_UNIT(MASS_MEASURE(0.001),#139);
#141=DERIVED_UNIT((#135,#136));
#142=MEASURE_REPRESENTATION_ITEM('density measure',
POSITIVE_RATIO_MEASURE(1.),#141);
#143=PROPERTY_DEFINITION_REPRESENTATION(#148,#145);
#144=PROPERTY_DEFINITION_REPRESENTATION(#149,#146);
#145=REPRESENTATION('material name',(#147),#259);
#146=REPRESENTATION('density',(#142),#259);
#147=DESCRIPTIVE_REPRESENTATION_ITEM('Generic','Generic');
#148=PROPERTY_DEFINITION('material property','material name',#269);
#149=PROPERTY_DEFINITION('material property','density of part',#269);
#150=DATE_TIME_ROLE('creation_date');
#151=APPLIED_DATE_AND_TIME_ASSIGNMENT(#152,#150,(#269));
#152=DATE_AND_TIME(#153,#154);
#153=CALENDAR_DATE(2026,9,3);
#154=LOCAL_TIME(9,21,39.,#155);
#155=COORDINATED_UNIVERSAL_TIME_OFFSET(0,0,.BEHIND.);
#156=AXIS2_PLACEMENT_3D('',#222,#176,#177);
#157=AXIS2_PLACEMENT_3D('',#223,#178,#179);
#158=AXIS2_PLACEMENT_3D('',#225,#180,#181);
#159=AXIS2_PLACEMENT_3D('',#228,#183,#184);
#160=AXIS2_PLACEMENT_3D('',#229,#185,#186);
#161=AXIS2_PLACEMENT_3D('',#232,#188,#189);
#162=AXIS2_PLACEMENT_3D('',#233,#190,#191);
#163=AXIS2_PLACEMENT_3D('',#235,#192,#193);
#164=AXIS2_PLACEMENT_3D('',#238,#195,#196);
#165=AXIS2_PLACEMENT_3D('',#239,#197,#198);
#166=AXIS2_PLACEMENT_3D('',#241,#199,#200);
#167=AXIS2_PLACEMENT_3D('',#243,#202,#203);
#168=AXIS2_PLACEMENT_3D('',#246,#205,#206);
#169=AXIS2_PLACEMENT_3D('',#247,#207,#208);
#170=AXIS2_PLACEMENT_3D('',#249,#209,#210);
#171=AXIS2_PLACEMENT_3D('',#252,#212,#213);
#172=AXIS2_PLACEMENT_3D('',#253,#214,#215);
#173=AXIS2_PLACEMENT_3D('',#254,#216,#217);
#174=AXIS2_PLACEMENT_3D('',#255,#218,#219);
#175=AXIS2_PLACEMENT_3D('',#256,#220,#221);
#176=DIRECTION('axis',(0.,0.,1.));
#177=DIRECTION('refdir',(1.,0.,0.));
#178=DIRECTION('center_axis',(0.,0.,-1.));
#179=DIRECTION('ref_axis',(0.,-1.,0.));
#180=DIRECTION('center_axis',(0.,0.,1.));
#181=DIRECTION('ref_axis',(0.,-1.,0.));
#182=DIRECTION('',(0.,0.,1.));
#183=DIRECTION('center_axis',(0.,0.,1.));
#184=DIRECTION('ref_axis',(0.,-1.,0.));
#185=DIRECTION('center_axis',(0.,0.,1.));
#186=DIRECTION('ref_axis',(0.,-1.,0.));
#187=DIRECTION('',(8.65956055458342E-17,-0.707106780551955,-0.70710678182114));
#188=DIRECTION('center_axis',(0.,0.,1.));
#189=DIRECTION('ref_axis',(0.,-1.,0.));
#190=DIRECTION('center_axis',(0.,0.,-1.));
#191=DIRECTION('ref_axis',(0.,-1.,0.));
#192=DIRECTION('center_axis',(0.,0.,1.));
#193=DIRECTION('ref_axis',(0.,-1.,0.));
#194=DIRECTION('',(-8.65956055458354E-17,-0.707106780551965,0.70710678182113));
#195=DIRECTION('center_axis',(0.,0.,1.));
#196=DIRECTION('ref_axis',(0.,-1.,0.));
#197=DIRECTION('center_axis',(0.,0.,-1.));
#198=DIRECTION('ref_axis',(0.,-1.,0.));
#199=DIRECTION('center_axis',(0.,0.,1.));
#200=DIRECTION('ref_axis',(0.,-1.,0.));
#201=DIRECTION('',(0.,0.,1.));
#202=DIRECTION('center_axis',(0.,0.,1.));
#203=DIRECTION('ref_axis',(0.,-1.,0.));
#204=DIRECTION('',(8.65956055458349E-17,-0.707106780551961,-0.707106781821134));
#205=DIRECTION('center_axis',(0.,0.,1.));
#206=DIRECTION('ref_axis',(0.,-1.,0.));
#207=DIRECTION('center_axis',(0.,0.,-1.));
#208=DIRECTION('ref_axis',(0.,-1.,0.));
#209=DIRECTION('center_axis',(0.,0.,1.));
#210=DIRECTION('ref_axis',(0.,-1.,0.));
#211=DIRECTION('',(0.,0.,1.));
#212=DIRECTION('center_axis',(0.,0.,1.));
#213=DIRECTION('ref_axis',(0.,-1.,0.));
#214=DIRECTION('center_axis',(0.,0.,-1.));
#215=DIRECTION('ref_axis',(0.,-1.,0.));
#216=DIRECTION('center_axis',(0.,0.,1.));
#217=DIRECTION('ref_axis',(1.,0.,0.));
#218=DIRECTION('center_axis',(0.,0.,-1.));
#219=DIRECTION('ref_axis',(0.,-1.,0.));
#220=DIRECTION('center_axis',(0.,0.,1.));
#221=DIRECTION('ref_axis',(1.,0.,0.));
#222=CARTESIAN_POINT('',(0.,0.,0.));
#223=CARTESIAN_POINT('Origin',(0.,0.,-6.85000000000308));
#224=CARTESIAN_POINT('',(-1.19769944854499E-15,9.77995818368919,-7.70000000000617));
#225=CARTESIAN_POINT('Origin',(0.,0.,-7.70000000000617));
#226=CARTESIAN_POINT('',(-1.19769944854499E-15,9.77995818368919,-6.));
#227=CARTESIAN_POINT('',(1.19769944854499E-15,9.77995818368919,-6.85000000000308));
#228=CARTESIAN_POINT('Origin',(0.,0.,-6.));
#229=CARTESIAN_POINT('Origin',(0.,0.,-9.70000000000038));
#230=CARTESIAN_POINT('',(-7.0784072888747E-16,5.77995818370077,-11.6999999999946));
#231=CARTESIAN_POINT('',(-9.52770088716231E-16,7.77995818369498,-9.70000000000038));
#232=CARTESIAN_POINT('Origin',(0.,0.,-11.6999999999946));
#233=CARTESIAN_POINT('Origin',(0.,-3.552714E-15,23.45));
#234=CARTESIAN_POINT('',(-7.8623757273472E-16,6.42011699440303,22.9));
#235=CARTESIAN_POINT('Origin',(0.,-3.552714E-15,22.9));
#236=CARTESIAN_POINT('',(6.51526424828509E-16,5.32011699440301,24.));
#237=CARTESIAN_POINT('',(7.18881998781614E-16,5.87011699440302,23.45));
#238=CARTESIAN_POINT('Origin',(0.,-3.552714E-15,24.));
#239=CARTESIAN_POINT('Origin',(0.,-3.552714E-15,13.));
#240=CARTESIAN_POINT('',(-7.8623757273472E-16,6.42011699440303,3.09999999999997));
#241=CARTESIAN_POINT('Origin',(0.,0.,3.09999999999997));
#242=CARTESIAN_POINT('',(7.86237572734721E-16,6.42011699440304,13.));
#243=CARTESIAN_POINT('Origin',(0.,0.,2.54999999999997));
#244=CARTESIAN_POINT('',(-6.5152642482851E-16,5.32011699440302,1.99999999999998));
#245=CARTESIAN_POINT('',(-7.18881998781615E-16,5.87011699440303,2.54999999999997));
#246=CARTESIAN_POINT('Origin',(0.,0.,1.99999999999997));
#247=CARTESIAN_POINT('Origin',(0.,0.,-2.00000000000002));
#248=CARTESIAN_POINT('',(-5.48627438335889E-16,4.47988300559692,-6.00000000000003));
#249=CARTESIAN_POINT('Origin',(0.,0.,-6.00000000000003));
#250=CARTESIAN_POINT('',(-5.48627438335889E-16,4.47988300559692,1.99999999999997));
#251=CARTESIAN_POINT('',(5.48627438335889E-16,4.47988300559692,-2.00000000000002));
#252=CARTESIAN_POINT('Origin',(0.,0.,1.99999999999997));
#253=CARTESIAN_POINT('Origin',(0.,-4.89999999999997,1.99999999999997));
#254=CARTESIAN_POINT('Origin',(0.,-2.66005849720151,24.));
#255=CARTESIAN_POINT('Origin',(0.,-2.88997909185038,-11.6999999999946));
#256=CARTESIAN_POINT('Origin',(0.,-7.12992059464306,-6.00000000000002));
#257=UNCERTAINTY_MEASURE_WITH_UNIT(LENGTH_MEASURE(0.01),#261,
'DISTANCE_ACCURACY_VALUE',
'Maximum model space distance between geometric entities at asserted c
onnectivities');
#258=UNCERTAINTY_MEASURE_WITH_UNIT(LENGTH_MEASURE(0.01),#261,
'DISTANCE_ACCURACY_VALUE',
'Maximum model space distance between geometric entities at asserted c
onnectivities');
#259=(
GEOMETRIC_REPRESENTATION_CONTEXT(3)
GLOBAL_UNCERTAINTY_ASSIGNED_CONTEXT((#257))
GLOBAL_UNIT_ASSIGNED_CONTEXT((#261,#263,#264))
REPRESENTATION_CONTEXT('','3D')
);
#260=(
GEOMETRIC_REPRESENTATION_CONTEXT(3)
GLOBAL_UNCERTAINTY_ASSIGNED_CONTEXT((#258))
GLOBAL_UNIT_ASSIGNED_CONTEXT((#261,#263,#264))
REPRESENTATION_CONTEXT('','3D')
);
#261=(
LENGTH_UNIT()
NAMED_UNIT(*)
SI_UNIT(.MILLI.,.METRE.)
);
#262=(
LENGTH_UNIT()
NAMED_UNIT(*)
SI_UNIT(.CENTI.,.METRE.)
);
#263=(
NAMED_UNIT(*)
PLANE_ANGLE_UNIT()
SI_UNIT($,.RADIAN.)
);
#264=(
NAMED_UNIT(*)
SI_UNIT($,.STERADIAN.)
SOLID_ANGLE_UNIT()
);
#265=SHAPE_DEFINITION_REPRESENTATION(#266,#267);
#266=PRODUCT_DEFINITION_SHAPE('',$,#269);
#267=SHAPE_REPRESENTATION('',(#156),#259);
#268=PRODUCT_DEFINITION_CONTEXT('part definition',#273,'design');
#269=PRODUCT_DEFINITION('3842530235','3842530235',#270,#268);
#270=PRODUCT_DEFINITION_FORMATION('',$,#275);
#271=PRODUCT_RELATED_PRODUCT_CATEGORY('3842530235','3842530235',(#275));
#272=APPLICATION_PROTOCOL_DEFINITION('international standard',
'automotive_design',2009,#273);
#273=APPLICATION_CONTEXT(
'Core Data for Automotive Mechanical Design Process');
#274=PRODUCT_CONTEXT('part definition',#273,'mechanical');
#275=PRODUCT('3842530235','3842530235','CORE SCREW',(#274));
#276=PRESENTATION_STYLE_ASSIGNMENT((#278));
#277=PRESENTATION_STYLE_ASSIGNMENT((#279));
#278=SURFACE_STYLE_USAGE(.BOTH.,#284);
#279=SURFACE_STYLE_USAGE(.BOTH.,#285);
#280=SURFACE_STYLE_RENDERING_WITH_PROPERTIES($,#292,(#282));
#281=SURFACE_STYLE_RENDERING_WITH_PROPERTIES($,#293,(#283));
#282=SURFACE_STYLE_TRANSPARENT(0.);
#283=SURFACE_STYLE_TRANSPARENT(0.);
#284=SURFACE_SIDE_STYLE('',(#286,#280));
#285=SURFACE_SIDE_STYLE('',(#287,#281));
#286=SURFACE_STYLE_FILL_AREA(#288);
#287=SURFACE_STYLE_FILL_AREA(#289);
#288=FILL_AREA_STYLE('',(#290));
#289=FILL_AREA_STYLE('',(#291));
#290=FILL_AREA_STYLE_COLOUR('',#292);
#291=FILL_AREA_STYLE_COLOUR('',#293);
#292=COLOUR_RGB('',0.749019607843137,0.749019607843137,0.749019607843137);
#293=COLOUR_RGB('',0.752941176470588,0.752941176470588,0.752941176470588);
ENDSEC;
END-ISO-10303-21;
