ISO-10303-21;
HEADER;
FILE_DESCRIPTION (( 'STEP AP214' ),
    '1' );
FILE_NAME ('02_3D_Step_Files093wu302a.step',
    '2023-03-28T17:41:16',
    ( '' ),
    ( '' ),
    'SwSTEP 2.0',
    'SolidWorks 2022',
    '' );
FILE_SCHEMA (( 'AUTOMOTIVE_DESIGN' ));
ENDSEC;

DATA;
#1 = EDGE_CURVE ( 'NONE', #173, #80, #279, .T. ) ;
#2 = ORIENTED_EDGE ( 'NONE', *, *, #218, .T. ) ;
#3 = DIRECTION ( 'NONE',  ( 0.000000000000000000, -0.000000000000000000, -1.000000000000000000 ) ) ;
#4 = DIRECTION ( 'NONE',  ( 0.000000000000000000, 0.000000000000000000, 1.000000000000000000 ) ) ;
#5 = DIRECTION ( 'NONE',  ( -1.000000000000000000, -2.710505431213760592E-16, 0.000000000000000000 ) ) ;
#6 = LINE ( 'NONE', #163, #7 ) ;
#7 = VECTOR ( 'NONE', #329, 1000.000000000000000 ) ;
#8 = CARTESIAN_POINT ( 'NONE',  ( 0.000000000000000000, 0.000000000000000000, 15.00000000000000000 ) ) ;
#9 = DIRECTION ( 'NONE',  ( -0.000000000000000000, -0.000000000000000000, -1.000000000000000000 ) ) ;
#10 = UNCERTAINTY_MEASURE_WITH_UNIT (LENGTH_MEASURE( 1.000000000000000082E-05 ), #34, 'distance_accuracy_value', 'NONE');
#11 = CARTESIAN_POINT ( 'NONE',  ( 0.000000000000000000, 0.000000000000000000, 15.00000000000000000 ) ) ;
#12 = VECTOR ( 'NONE', #23, 1000.000000000000000 ) ;
#13 = EDGE_CURVE ( 'NONE', #273, #399, #286, .T. ) ;
#14 = EDGE_LOOP ( 'NONE', ( #394, #313, #357, #281 ) ) ;
#15 = EDGE_LOOP ( 'NONE', ( #205, #384, #29, #368 ) ) ;
#16 = ADVANCED_FACE ( 'NONE', ( #215 ), #319, .T. ) ;
#17 = VECTOR ( 'NONE', #129, 1000.000000000000000 ) ;
#18 = ORIENTED_EDGE ( 'NONE', *, *, #146, .T. ) ;
#19 = EDGE_LOOP ( 'NONE', ( #60, #112, #64, #234, #236, #22 ) ) ;
#20 =( NAMED_UNIT ( * ) PLANE_ANGLE_UNIT ( ) SI_UNIT ( $, .RADIAN. ) );
#21 = AXIS2_PLACEMENT_3D ( 'NONE', #326, #36, #267 ) ;
#22 = ORIENTED_EDGE ( 'NONE', *, *, #61, .T. ) ;
#23 = DIRECTION ( 'NONE',  ( -1.000000000000000000, -1.606225440719266182E-17, -0.000000000000000000 ) ) ;
#24 = CARTESIAN_POINT ( 'NONE',  ( 30.00000000000000000, 3.000000000000000000, 15.00000000000000000 ) ) ;
#25 = VERTEX_POINT ( 'NONE', #63 ) ;
#26 = DIRECTION ( 'NONE',  ( 1.000000000000000000, 1.606225440719266182E-17, 0.000000000000000000 ) ) ;
#27 = LINE ( 'NONE', #222, #97 ) ;
#28 = APPLICATION_CONTEXT ( 'automotive_design' ) ;
#29 = ORIENTED_EDGE ( 'NONE', *, *, #202, .T. ) ;
#30 = DIRECTION ( 'NONE',  ( 0.000000000000000000, 0.000000000000000000, -1.000000000000000000 ) ) ;
#31 = ADVANCED_FACE ( 'NONE', ( #235 ), #199, .F. ) ;
#32 = ADVANCED_FACE ( 'NONE', ( #85 ), #314, .F. ) ;
#33 = DIRECTION ( 'NONE',  ( 1.000000000000000000, 0.000000000000000000, 0.000000000000000000 ) ) ;
#34 =( LENGTH_UNIT ( ) NAMED_UNIT ( * ) SI_UNIT ( .MILLI., .METRE. ) );
#35 = DIRECTION ( 'NONE',  ( 0.000000000000000000, 0.000000000000000000, -1.000000000000000000 ) ) ;
#36 = DIRECTION ( 'NONE',  ( 1.000000000000000000, 0.000000000000000000, 0.000000000000000000 ) ) ;
#37 = PRODUCT_DEFINITION_SHAPE ( 'NONE', 'NONE',  #353 ) ;
#38 = ADVANCED_FACE ( 'NONE', ( #414, #179 ), #149, .F. ) ;
#39 = CARTESIAN_POINT ( 'NONE',  ( 15.00000000000000178, 3.000000000000001776, 0.000000000000000000 ) ) ;
#40 = CARTESIAN_POINT ( 'NONE',  ( 3.000000000000003553, 15.00000000000000000, 0.000000000000000000 ) ) ;
#41 = COLOUR_RGB ( '',0.5019607843137254832, 0.5019607843137254832, 0.5019607843137254832 ) ;
#42 = CARTESIAN_POINT ( 'NONE',  ( 3.000000000000003553, 2.999999999999999556, 15.00000000000000000 ) ) ;
#43 = CARTESIAN_POINT ( 'NONE',  ( 30.00000000000000000, 0.000000000000000000, 15.00000000000000000 ) ) ;
#44 = EDGE_CURVE ( 'NONE', #80, #400, #254, .T. ) ;
#45 = EDGE_LOOP ( 'NONE', ( #366, #184, #226, #379 ) ) ;
#46 = VECTOR ( 'NONE', #385, 999.9999999999998863 ) ;
#47 = VERTEX_POINT ( 'NONE', #211 ) ;
#48 = EDGE_CURVE ( 'NONE', #47, #77, #186, .T. ) ;
#49 = VERTEX_POINT ( 'NONE', #280 ) ;
#50 = ORIENTED_EDGE ( 'NONE', *, *, #298, .F. ) ;
#51 = VECTOR ( 'NONE', #9, 1000.000000000000000 ) ;
#52 = PRESENTATION_LAYER_ASSIGNMENT (  '', '', ( #250 ) ) ;
#53 = DIRECTION ( 'NONE',  ( -1.000000000000000000, -0.000000000000000000, -0.000000000000000000 ) ) ;
#54 = LINE ( 'NONE', #404, #354 ) ;
#55 = ORIENTED_EDGE ( 'NONE', *, *, #308, .T. ) ;
#56 = CARTESIAN_POINT ( 'NONE',  ( 3.000000000000000000, 30.00000000000000000, 15.00000000000000000 ) ) ;
#57 = CARTESIAN_POINT ( 'NONE',  ( 0.000000000000000000, 15.00000000000000000, 0.000000000000000000 ) ) ;
#58 = PLANE ( 'NONE',  #124 ) ;
#59 = ORIENTED_EDGE ( 'NONE', *, *, #187, .F. ) ;
#60 = ORIENTED_EDGE ( 'NONE', *, *, #375, .T. ) ;
#61 = EDGE_CURVE ( 'NONE', #273, #247, #248, .T. ) ;
#62 = DIRECTION ( 'NONE',  ( 0.000000000000000000, -1.000000000000000000, 0.000000000000000000 ) ) ;
#63 = CARTESIAN_POINT ( 'NONE',  ( 18.40000000000003411, 1.869782377063801877E-15, 6.000769315822054406E-16 ) ) ;
#64 = ORIENTED_EDGE ( 'NONE', *, *, #192, .T. ) ;
#65 = DIRECTION ( 'NONE',  ( -1.284980352575412699E-16, 1.000000000000000000, -0.000000000000000000 ) ) ;
#66 = SURFACE_STYLE_USAGE ( .BOTH. , #119 ) ;
#67 = AXIS2_PLACEMENT_3D ( 'NONE', #252, #382, #189 ) ;
#68 = LINE ( 'NONE', #342, #46 ) ;
#69 = CARTESIAN_POINT ( 'NONE',  ( 8.599999999999999645, 3.000000000000000000, 0.000000000000000000 ) ) ;
#70 = CARTESIAN_POINT ( 'NONE',  ( 30.00000000000000000, 0.000000000000000000, -15.00000000000000000 ) ) ;
#71 = AXIS2_PLACEMENT_3D ( 'NONE', #141, #373, #125 ) ;
#72 = VECTOR ( 'NONE', #257, 1000.000000000000000 ) ;
#73 = UNCERTAINTY_MEASURE_WITH_UNIT (LENGTH_MEASURE( 1.000000000000000082E-05 ), #416, 'distance_accuracy_value', 'NONE');
#74 = ADVANCED_FACE ( 'NONE', ( #94, #350 ), #380, .F. ) ;
#75 = DIRECTION ( 'NONE',  ( -1.284980352575412699E-16, 1.000000000000000000, -0.000000000000000000 ) ) ;
#76 = EDGE_CURVE ( 'NONE', #172, #49, #176, .T. ) ;
#77 = VERTEX_POINT ( 'NONE', #118 ) ;
#78 = ORIENTED_EDGE ( 'NONE', *, *, #13, .T. ) ;
#79 = VECTOR ( 'NONE', #383, 1000.000000000000000 ) ;
#80 = VERTEX_POINT ( 'NONE', #347 ) ;
#81 = ORIENTED_EDGE ( 'NONE', *, *, #1, .T. ) ;
#82 = ORIENTED_EDGE ( 'NONE', *, *, #270, .T. ) ;
#83 = VECTOR ( 'NONE', #318, 999.9999999999998863 ) ;
#84 = CARTESIAN_POINT ( 'NONE',  ( 0.000000000000000000, 15.00000000000000000, 0.000000000000000000 ) ) ;
#85 = FACE_OUTER_BOUND ( 'NONE', #15, .T. ) ;
#86 = CARTESIAN_POINT ( 'NONE',  ( 0.000000000000000000, 0.000000000000000000, 15.00000000000000000 ) ) ;
#87 = CARTESIAN_POINT ( 'NONE',  ( 0.000000000000000000, 15.00000000000000000, -3.399999999999986144 ) ) ;
#88 = LINE ( 'NONE', #278, #72 ) ;
#89 = ADVANCED_FACE ( 'NONE', ( #321 ), #333, .F. ) ;
#90 = VECTOR ( 'NONE', #310, 1000.000000000000000 ) ;
#91 = CARTESIAN_POINT ( 'NONE',  ( 0.000000000000000000, 0.000000000000000000, -15.00000000000000000 ) ) ;
#92 = DIRECTION ( 'NONE',  ( 0.000000000000000000, 0.000000000000000000, 1.000000000000000000 ) ) ;
#93 =( NAMED_UNIT ( * ) SI_UNIT ( $, .STERADIAN. ) SOLID_ANGLE_UNIT ( ) );
#94 = FACE_BOUND ( 'NONE', #122, .T. ) ;
#95 = CARTESIAN_POINT ( 'NONE',  ( 11.59999999999996945, -1.350589010869947822E-16, 0.000000000000000000 ) ) ;
#96 = VECTOR ( 'NONE', #208, 1000.000000000000000 ) ;
#97 = VECTOR ( 'NONE', #154, 999.9999999999998863 ) ;
#98 = CARTESIAN_POINT ( 'NONE',  ( 21.40000000000000213, 3.000000000000003553, 7.837739514543061906E-16 ) ) ;
#99 = DIRECTION ( 'NONE',  ( -1.000000000000000000, -2.710505431213760592E-16, 0.000000000000000000 ) ) ;
#100 = EDGE_CURVE ( 'NONE', #210, #49, #113, .T. ) ;
#101 = EDGE_CURVE ( 'NONE', #108, #273, #241, .T. ) ;
#102 = PLANE ( 'NONE',  #240 ) ;
#103 = DIRECTION ( 'NONE',  ( 1.000000000000000000, 0.000000000000000000, 0.000000000000000000 ) ) ;
#104 = AXIS2_PLACEMENT_3D ( 'NONE', #405, #4, #160 ) ;
#105 = DIRECTION ( 'NONE',  ( -2.948295997280554610E-16, 1.000000000000000000, -0.000000000000000000 ) ) ;
#106 = EDGE_LOOP ( 'NONE', ( #140, #55 ) ) ;
#107 = PRODUCT_RELATED_PRODUCT_CATEGORY ( 'part', '', ( #358 ) ) ;
#108 = VERTEX_POINT ( 'NONE', #377 ) ;
#109 =( GEOMETRIC_REPRESENTATION_CONTEXT ( 3 ) GLOBAL_UNCERTAINTY_ASSIGNED_CONTEXT ( ( #228 ) ) GLOBAL_UNIT_ASSIGNED_CONTEXT ( ( #361, #406, #346 ) ) REPRESENTATION_CONTEXT ( 'NONE', 'WORKASPACE' ) );
#110 = VERTEX_POINT ( 'NONE', #87 ) ;
#111 = ORIENTED_EDGE ( 'NONE', *, *, #146, .F. ) ;
#112 = ORIENTED_EDGE ( 'NONE', *, *, #147, .T. ) ;
#113 = LINE ( 'NONE', #244, #372 ) ;
#114 = VECTOR ( 'NONE', #242, 999.9999999999998863 ) ;
#115 = FILL_AREA_STYLE ('',( #237 ) ) ;
#116 = CARTESIAN_POINT ( 'NONE',  ( 3.000000000000000000, 30.00000000000000000, 15.00000000000000000 ) ) ;
#117 = FILL_AREA_STYLE ('',( #150 ) ) ;
#118 = CARTESIAN_POINT ( 'NONE',  ( 3.000000000000003553, 15.00000000000000000, 6.399999999999999467 ) ) ;
#119 = SURFACE_SIDE_STYLE ('',( #322 ) ) ;
#120 = SHAPE_DEFINITION_REPRESENTATION ( #37, #135 ) ;
#121 = ADVANCED_FACE ( 'NONE', ( #345 ), #58, .F. ) ;
#122 = EDGE_LOOP ( 'NONE', ( #175, #170 ) ) ;
#123 = CARTESIAN_POINT ( 'NONE',  ( 3.000000000000003553, 15.00000000000000000, -6.399999999999999467 ) ) ;
#124 = AXIS2_PLACEMENT_3D ( 'NONE', #153, #282, #409 ) ;
#125 = DIRECTION ( 'NONE',  ( -1.000000000000000000, -2.710505431213760592E-16, 0.000000000000000000 ) ) ;
#126 = CARTESIAN_POINT ( 'NONE',  ( 30.00000000000000000, 3.000000000000000000, 15.00000000000000000 ) ) ;
#127 = EDGE_LOOP ( 'NONE', ( #178, #413, #50, #81 ) ) ;
#128 = PRODUCT_CONTEXT ( 'NONE', #309, 'mechanical' ) ;
#129 = DIRECTION ( 'NONE',  ( -0.000000000000000000, -1.000000000000000000, -0.000000000000000000 ) ) ;
#130 = AXIS2_PLACEMENT_3D ( 'NONE', #57, #245, #351 ) ;
#131 = DIRECTION ( 'NONE',  ( 0.000000000000000000, 0.000000000000000000, 1.000000000000000000 ) ) ;
#132 = CARTESIAN_POINT ( 'NONE',  ( 3.000000000000003553, 2.999999999999999556, -15.00000000000000000 ) ) ;
#133 = ADVANCED_FACE ( 'NONE', ( #195 ), #102, .F. ) ;
#134 = FACE_OUTER_BOUND ( 'NONE', #14, .T. ) ;
#135 = ADVANCED_BREP_SHAPE_REPRESENTATION ( '02_3D_Step_Files093wu302a', ( #139, #104 ), #109 ) ;
#136 = AXIS2_PLACEMENT_3D ( 'NONE', #40, #168, #131 ) ;
#137 = PLANE ( 'NONE',  #21 ) ;
#138 = ORIENTED_EDGE ( 'NONE', *, *, #297, .F. ) ;
#139 = MANIFOLD_SOLID_BREP ( 'Schnitt-Rotation2', #362 ) ;
#140 = ORIENTED_EDGE ( 'NONE', *, *, #220, .T. ) ;
#141 = CARTESIAN_POINT ( 'NONE',  ( 15.00000000000000178, 3.000000000000001776, 0.000000000000000000 ) ) ;
#142 = ORIENTED_EDGE ( 'NONE', *, *, #398, .F. ) ;
#143 = VECTOR ( 'NONE', #407, 1000.000000000000000 ) ;
#144 = CIRCLE ( 'NONE', #169, 6.400000000000001243 ) ;
#145 = ORIENTED_EDGE ( 'NONE', *, *, #360, .F. ) ;
#146 = EDGE_CURVE ( 'NONE', #399, #172, #54, .T. ) ;
#147 = EDGE_CURVE ( 'NONE', #210, #301, #88, .T. ) ;
#148 = ORIENTED_EDGE ( 'NONE', *, *, #270, .F. ) ;
#149 = PLANE ( 'NONE',  #260 ) ;
#150 = FILL_AREA_STYLE_COLOUR ( '', #412 ) ;
#151 = AXIS2_PLACEMENT_3D ( 'NONE', #196, #197, #296 ) ;
#152 = CARTESIAN_POINT ( 'NONE',  ( 3.000000000000000000, 30.00000000000000000, 15.00000000000000000 ) ) ;
#153 = CARTESIAN_POINT ( 'NONE',  ( 30.00000000000000000, 0.000000000000000000, 15.00000000000000000 ) ) ;
#154 = DIRECTION ( 'NONE',  ( 0.7071067811865463515, 0.000000000000000000, -0.7071067811865487940 ) ) ;
#155 = ORIENTED_EDGE ( 'NONE', *, *, #202, .F. ) ;
#156 =( NAMED_UNIT ( * ) SI_UNIT ( $, .STERADIAN. ) SOLID_ANGLE_UNIT ( ) );
#157 = MECHANICAL_DESIGN_GEOMETRIC_PRESENTATION_REPRESENTATION (  '', ( #250 ), #392 ) ;
#158 = ORIENTED_EDGE ( 'NONE', *, *, #44, .F. ) ;
#159 = FACE_OUTER_BOUND ( 'NONE', #370, .T. ) ;
#160 = DIRECTION ( 'NONE',  ( 1.000000000000000000, 0.000000000000000000, 0.000000000000000000 ) ) ;
#161 = EDGE_CURVE ( 'NONE', #182, #320, #68, .T. ) ;
#162 = LINE ( 'NONE', #393, #396 ) ;
#163 = CARTESIAN_POINT ( 'NONE',  ( 3.000000000000003553, 2.999999999999999556, 15.00000000000000000 ) ) ;
#164 =( GEOMETRIC_REPRESENTATION_CONTEXT ( 3 ) GLOBAL_UNCERTAINTY_ASSIGNED_CONTEXT ( ( #10 ) ) GLOBAL_UNIT_ASSIGNED_CONTEXT ( ( #34, #20, #156 ) ) REPRESENTATION_CONTEXT ( 'NONE', 'WORKASPACE' ) );
#165 = EDGE_CURVE ( 'NONE', #247, #172, #352, .T. ) ;
#166 = CARTESIAN_POINT ( 'NONE',  ( 15.00000000000000355, 8.673617379884035472E-16, 0.000000000000000000 ) ) ;
#167 = DIRECTION ( 'NONE',  ( -1.000000000000000000, -2.948295997280554610E-16, 0.000000000000000000 ) ) ;
#168 = DIRECTION ( 'NONE',  ( -1.000000000000000000, -0.000000000000000000, -0.000000000000000000 ) ) ;
#169 = AXIS2_PLACEMENT_3D ( 'NONE', #262, #233, #386 ) ;
#170 = ORIENTED_EDGE ( 'NONE', *, *, #369, .F. ) ;
#171 = ORIENTED_EDGE ( 'NONE', *, *, #76, .F. ) ;
#172 = VERTEX_POINT ( 'NONE', #415 ) ;
#173 = VERTEX_POINT ( 'NONE', #126 ) ;
#174 = EDGE_CURVE ( 'NONE', #25, #269, #255, .T. ) ;
#175 = ORIENTED_EDGE ( 'NONE', *, *, #251, .F. ) ;
#176 = LINE ( 'NONE', #91, #90 ) ;
#177 = SURFACE_SIDE_STYLE ('',( #204 ) ) ;
#178 = ORIENTED_EDGE ( 'NONE', *, *, #44, .T. ) ;
#179 = FACE_OUTER_BOUND ( 'NONE', #212, .T. ) ;
#180 = DIRECTION ( 'NONE',  ( 0.000000000000000000, 0.000000000000000000, 1.000000000000000000 ) ) ;
#181 = CONICAL_SURFACE ( 'NONE', #214, 6.400000000000001243, 0.7853981633974428389 ) ;
#182 = VERTEX_POINT ( 'NONE', #95 ) ;
#183 = DIRECTION ( 'NONE',  ( -1.000000000000000000, -1.284980352575412699E-16, 0.000000000000000000 ) ) ;
#184 = ORIENTED_EDGE ( 'NONE', *, *, #1, .F. ) ;
#185 = CARTESIAN_POINT ( 'NONE',  ( 3.000000000000003553, 15.00000000000000000, 0.000000000000000000 ) ) ;
#186 = LINE ( 'NONE', #291, #114 ) ;
#187 = EDGE_CURVE ( 'NONE', #47, #110, #206, .T. ) ;
#188 = AXIS2_PLACEMENT_3D ( 'NONE', #402, #33, #30 ) ;
#189 = DIRECTION ( 'NONE',  ( -1.000000000000000000, 0.000000000000000000, -0.000000000000000000 ) ) ;
#190 = DIRECTION ( 'NONE',  ( -2.948295997280554610E-16, 1.000000000000000000, -0.000000000000000000 ) ) ;
#191 = DIRECTION ( 'NONE',  ( 0.000000000000000000, -0.000000000000000000, 1.000000000000000000 ) ) ;
#192 = EDGE_CURVE ( 'NONE', #301, #173, #243, .T. ) ;
#193 = DIRECTION ( 'NONE',  ( 0.000000000000000000, 1.000000000000000000, 0.000000000000000000 ) ) ;
#194 = CIRCLE ( 'NONE', #261, 3.400000000000033218 ) ;
#195 = FACE_OUTER_BOUND ( 'NONE', #19, .T. ) ;
#196 = CARTESIAN_POINT ( 'NONE',  ( 15.00000000000000355, 8.673617379884035472E-16, 0.000000000000000000 ) ) ;
#197 = DIRECTION ( 'NONE',  ( -2.948295997280554610E-16, 1.000000000000000000, -0.000000000000000000 ) ) ;
#198 = ORIENTED_EDGE ( 'NONE', *, *, #375, .F. ) ;
#199 = CONICAL_SURFACE ( 'NONE', #71, 6.400000000000001243, 0.7853981633974428389 ) ;
#200 = AXIS2_PLACEMENT_3D ( 'NONE', #11, #325, #191 ) ;
#201 = ORIENTED_EDGE ( 'NONE', *, *, #61, .F. ) ;
#202 = EDGE_CURVE ( 'NONE', #110, #219, #27, .T. ) ;
#203 = ORIENTED_EDGE ( 'NONE', *, *, #220, .F. ) ;
#204 = SURFACE_STYLE_FILL_AREA ( #115 ) ;
#205 = ORIENTED_EDGE ( 'NONE', *, *, #48, .F. ) ;
#206 = CIRCLE ( 'NONE', #130, 3.399999999999986144 ) ;
#207 = PRODUCT_DEFINITION_FORMATION_WITH_SPECIFIED_SOURCE ( 'ANY', '', #358, .NOT_KNOWN. ) ;
#208 = DIRECTION ( 'NONE',  ( -0.000000000000000000, -0.000000000000000000, -1.000000000000000000 ) ) ;
#209 = DIRECTION ( 'NONE',  ( 0.000000000000000000, 0.000000000000000000, -1.000000000000000000 ) ) ;
#210 = VERTEX_POINT ( 'NONE', #86 ) ;
#211 = CARTESIAN_POINT ( 'NONE',  ( 0.000000000000000000, 15.00000000000000000, 3.399999999999986144 ) ) ;
#212 = EDGE_LOOP ( 'NONE', ( #306, #303, #335, #253 ) ) ;
#213 = CARTESIAN_POINT ( 'NONE',  ( 0.000000000000000000, 30.00000000000000000, 15.00000000000000000 ) ) ;
#214 = AXIS2_PLACEMENT_3D ( 'NONE', #39, #389, #99 ) ;
#215 = FACE_OUTER_BOUND ( 'NONE', #338, .T. ) ;
#216 = DIRECTION ( 'NONE',  ( 1.606225440719266182E-17, -1.000000000000000000, 0.000000000000000000 ) ) ;
#217 = PLANE ( 'NONE',  #229 ) ;
#218 = EDGE_CURVE ( 'NONE', #110, #47, #324, .T. ) ;
#219 = VERTEX_POINT ( 'NONE', #123 ) ;
#220 = EDGE_CURVE ( 'NONE', #219, #77, #300, .T. ) ;
#221 = CARTESIAN_POINT ( 'NONE',  ( 3.000000000000003553, 2.999999999999999556, 15.00000000000000000 ) ) ;
#222 = CARTESIAN_POINT ( 'NONE',  ( 0.000000000000000000, 15.00000000000000000, -3.399999999999986144 ) ) ;
#223 = DIRECTION ( 'NONE',  ( -1.000000000000000000, 0.000000000000000000, -0.000000000000000000 ) ) ;
#224 = DIRECTION ( 'NONE',  ( -0.000000000000000000, -0.000000000000000000, -1.000000000000000000 ) ) ;
#225 = FACE_OUTER_BOUND ( 'NONE', #268, .T. ) ;
#226 = ORIENTED_EDGE ( 'NONE', *, *, #192, .F. ) ;
#227 = AXIS2_PLACEMENT_3D ( 'NONE', #221, #216, #26 ) ;
#228 = UNCERTAINTY_MEASURE_WITH_UNIT (LENGTH_MEASURE( 1.000000000000000082E-05 ), #361, 'distance_accuracy_value', 'NONE');
#229 = AXIS2_PLACEMENT_3D ( 'NONE', #348, #62, #3 ) ;
#230 = CARTESIAN_POINT ( 'NONE',  ( 0.000000000000000000, 30.00000000000000000, 15.00000000000000000 ) ) ;
#231 = CARTESIAN_POINT ( 'NONE',  ( 3.000000000000000000, 30.00000000000000000, 15.00000000000000000 ) ) ;
#232 = ADVANCED_FACE ( 'NONE', ( #159 ), #217, .F. ) ;
#233 = DIRECTION ( 'NONE',  ( -2.948295997280554610E-16, 1.000000000000000000, -0.000000000000000000 ) ) ;
#234 = ORIENTED_EDGE ( 'NONE', *, *, #298, .T. ) ;
#235 = FACE_OUTER_BOUND ( 'NONE', #344, .T. ) ;
#236 = ORIENTED_EDGE ( 'NONE', *, *, #101, .T. ) ;
#237 = FILL_AREA_STYLE_COLOUR ( '', #41 ) ;
#238 = EDGE_LOOP ( 'NONE', ( #2, #340, #203, #155 ) ) ;
#239 = ORIENTED_EDGE ( 'NONE', *, *, #100, .F. ) ;
#240 = AXIS2_PLACEMENT_3D ( 'NONE', #230, #35, #223 ) ;
#241 = LINE ( 'NONE', #116, #305 ) ;
#242 = DIRECTION ( 'NONE',  ( 0.7071067811865463515, 8.659560562354948882E-17, 0.7071067811865487940 ) ) ;
#243 = LINE ( 'NONE', #323, #79 ) ;
#244 = CARTESIAN_POINT ( 'NONE',  ( 0.000000000000000000, 0.000000000000000000, 15.00000000000000000 ) ) ;
#245 = DIRECTION ( 'NONE',  ( -1.000000000000000000, -0.000000000000000000, -0.000000000000000000 ) ) ;
#246 = SURFACE_STYLE_USAGE ( .BOTH. , #177 ) ;
#247 = VERTEX_POINT ( 'NONE', #259 ) ;
#248 = LINE ( 'NONE', #339, #391 ) ;
#249 = CARTESIAN_POINT ( 'NONE',  ( 21.40000000000000213, 3.000000000000003553, 7.837739514543061906E-16 ) ) ;
#250 = STYLED_ITEM ( 'NONE', ( #312 ), #135 ) ;
#251 = EDGE_CURVE ( 'NONE', #320, #269, #144, .T. ) ;
#252 = CARTESIAN_POINT ( 'NONE',  ( 0.000000000000000000, 30.00000000000000000, -15.00000000000000000 ) ) ;
#253 = ORIENTED_EDGE ( 'NONE', *, *, #302, .T. ) ;
#254 = LINE ( 'NONE', #403, #12 ) ;
#255 = LINE ( 'NONE', #249, #83 ) ;
#256 = ORIENTED_EDGE ( 'NONE', *, *, #174, .F. ) ;
#257 = DIRECTION ( 'NONE',  ( 1.000000000000000000, 0.000000000000000000, 0.000000000000000000 ) ) ;
#258 = APPLICATION_PROTOCOL_DEFINITION ( 'draft international standard', 'automotive_design', 1998, #28 ) ;
#259 = CARTESIAN_POINT ( 'NONE',  ( 0.000000000000000000, 30.00000000000000000, 15.00000000000000000 ) ) ;
#260 = AXIS2_PLACEMENT_3D ( 'NONE', #56, #183, #317 ) ;
#261 = AXIS2_PLACEMENT_3D ( 'NONE', #166, #190, #167 ) ;
#262 = CARTESIAN_POINT ( 'NONE',  ( 15.00000000000000178, 3.000000000000001776, 0.000000000000000000 ) ) ;
#263 = PRODUCT_DEFINITION_CONTEXT ( 'detailed design', #28, 'design' ) ;
#264 = LINE ( 'NONE', #265, #276 ) ;
#265 = CARTESIAN_POINT ( 'NONE',  ( 3.000000000000000000, 30.00000000000000000, -15.00000000000000000 ) ) ;
#266 = PRESENTATION_LAYER_ASSIGNMENT (  '', '', ( #315 ) ) ;
#267 = DIRECTION ( 'NONE',  ( 0.000000000000000000, 0.000000000000000000, -1.000000000000000000 ) ) ;
#268 = EDGE_LOOP ( 'NONE', ( #290, #239, #198, #397 ) ) ;
#269 = VERTEX_POINT ( 'NONE', #98 ) ;
#270 = EDGE_CURVE ( 'NONE', #182, #25, #194, .T. ) ;
#271 = MECHANICAL_DESIGN_GEOMETRIC_PRESENTATION_REPRESENTATION (  '', ( #315 ), #164 ) ;
#272 = VERTEX_POINT ( 'NONE', #364 ) ;
#273 = VERTEX_POINT ( 'NONE', #231 ) ;
#274 = ORIENTED_EDGE ( 'NONE', *, *, #285, .F. ) ;
#275 = ORIENTED_EDGE ( 'NONE', *, *, #161, .F. ) ;
#276 = VECTOR ( 'NONE', #75, 1000.000000000000000 ) ;
#277 = DIRECTION ( 'NONE',  ( -0.000000000000000000, -0.000000000000000000, -1.000000000000000000 ) ) ;
#278 = CARTESIAN_POINT ( 'NONE',  ( 0.000000000000000000, 0.000000000000000000, 15.00000000000000000 ) ) ;
#279 = LINE ( 'NONE', #24, #96 ) ;
#280 = CARTESIAN_POINT ( 'NONE',  ( 0.000000000000000000, 0.000000000000000000, -15.00000000000000000 ) ) ;
#281 = ORIENTED_EDGE ( 'NONE', *, *, #100, .T. ) ;
#282 = DIRECTION ( 'NONE',  ( -1.000000000000000000, 0.000000000000000000, 0.000000000000000000 ) ) ;
#283 = CARTESIAN_POINT ( 'NONE',  ( 0.000000000000000000, 15.00000000000000000, 0.000000000000000000 ) ) ;
#284 = EDGE_CURVE ( 'NONE', #301, #272, #355, .T. ) ;
#285 = EDGE_CURVE ( 'NONE', #25, #182, #367, .T. ) ;
#286 = LINE ( 'NONE', #152, #143 ) ;
#287 = EDGE_LOOP ( 'NONE', ( #82, #349 ) ) ;
#288 = DIRECTION ( 'NONE',  ( -1.000000000000000000, -0.000000000000000000, -0.000000000000000000 ) ) ;
#289 = AXIS2_PLACEMENT_3D ( 'NONE', #292, #105, #5 ) ;
#290 = ORIENTED_EDGE ( 'NONE', *, *, #76, .T. ) ;
#291 = CARTESIAN_POINT ( 'NONE',  ( 0.000000000000000000, 15.00000000000000000, 3.399999999999986144 ) ) ;
#292 = CARTESIAN_POINT ( 'NONE',  ( 15.00000000000000178, 3.000000000000001776, 0.000000000000000000 ) ) ;
#293 = LINE ( 'NONE', #8, #17 ) ;
#294 = VECTOR ( 'NONE', #224, 1000.000000000000000 ) ;
#295 = PLANE ( 'NONE',  #200 ) ;
#296 = DIRECTION ( 'NONE',  ( -1.000000000000000000, -2.948295997280554610E-16, 0.000000000000000000 ) ) ;
#297 = EDGE_CURVE ( 'NONE', #400, #399, #264, .T. ) ;
#298 = EDGE_CURVE ( 'NONE', #173, #108, #6, .T. ) ;
#299 = FACE_BOUND ( 'NONE', #287, .T. ) ;
#300 = CIRCLE ( 'NONE', #328, 6.399999999999999467 ) ;
#301 = VERTEX_POINT ( 'NONE', #331 ) ;
#302 = EDGE_CURVE ( 'NONE', #108, #400, #390, .T. ) ;
#303 = ORIENTED_EDGE ( 'NONE', *, *, #13, .F. ) ;
#304 = ORIENTED_EDGE ( 'NONE', *, *, #165, .F. ) ;
#305 = VECTOR ( 'NONE', #65, 1000.000000000000000 ) ;
#306 = ORIENTED_EDGE ( 'NONE', *, *, #297, .T. ) ;
#307 = ORIENTED_EDGE ( 'NONE', *, *, #174, .T. ) ;
#308 = EDGE_CURVE ( 'NONE', #77, #219, #387, .T. ) ;
#309 = APPLICATION_CONTEXT ( 'automotive_design' ) ;
#310 = DIRECTION ( 'NONE',  ( -0.000000000000000000, -1.000000000000000000, -0.000000000000000000 ) ) ;
#311 = DIRECTION ( 'NONE',  ( -0.000000000000000000, -0.000000000000000000, -1.000000000000000000 ) ) ;
#312 = PRESENTATION_STYLE_ASSIGNMENT (( #246 ) ) ;
#313 = ORIENTED_EDGE ( 'NONE', *, *, #284, .F. ) ;
#314 = CONICAL_SURFACE ( 'NONE', #411, 3.399999999999986144, 0.7853981633974499443 ) ;
#315 = STYLED_ITEM ( 'NONE', ( #374 ), #139 ) ;
#316 = ORIENTED_EDGE ( 'NONE', *, *, #161, .T. ) ;
#317 = DIRECTION ( 'NONE',  ( 1.284980352575412699E-16, -1.000000000000000000, 0.000000000000000000 ) ) ;
#318 = DIRECTION ( 'NONE',  ( 0.7071067811865435759, 0.7071067811865515695, 8.659560562354887252E-17 ) ) ;
#319 = PLANE ( 'NONE',  #67 ) ;
#320 = VERTEX_POINT ( 'NONE', #69 ) ;
#321 = FACE_OUTER_BOUND ( 'NONE', #238, .T. ) ;
#322 = SURFACE_STYLE_FILL_AREA ( #117 ) ;
#323 = CARTESIAN_POINT ( 'NONE',  ( 30.00000000000000000, 0.000000000000000000, 15.00000000000000000 ) ) ;
#324 = CIRCLE ( 'NONE', #378, 3.399999999999986144 ) ;
#325 = DIRECTION ( 'NONE',  ( 0.000000000000000000, 1.000000000000000000, 0.000000000000000000 ) ) ;
#326 = CARTESIAN_POINT ( 'NONE',  ( 0.000000000000000000, 0.000000000000000000, 15.00000000000000000 ) ) ;
#327 = CARTESIAN_POINT ( 'NONE',  ( 3.000000000000000000, 30.00000000000000000, -15.00000000000000000 ) ) ;
#328 = AXIS2_PLACEMENT_3D ( 'NONE', #185, #381, #92 ) ;
#329 = DIRECTION ( 'NONE',  ( -1.000000000000000000, -1.606225440719266182E-17, -0.000000000000000000 ) ) ;
#330 = ADVANCED_FACE ( 'NONE', ( #299, #134 ), #295, .F. ) ;
#331 = CARTESIAN_POINT ( 'NONE',  ( 30.00000000000000000, 0.000000000000000000, 15.00000000000000000 ) ) ;
#332 = ORIENTED_EDGE ( 'NONE', *, *, #369, .T. ) ;
#333 = CONICAL_SURFACE ( 'NONE', #188, 3.399999999999986144, 0.7853981633974499443 ) ;
#334 = ORIENTED_EDGE ( 'NONE', *, *, #218, .F. ) ;
#335 = ORIENTED_EDGE ( 'NONE', *, *, #101, .F. ) ;
#336 = ORIENTED_EDGE ( 'NONE', *, *, #251, .T. ) ;
#337 = VECTOR ( 'NONE', #193, 1000.000000000000000 ) ;
#338 = EDGE_LOOP ( 'NONE', ( #171, #111, #138, #158, #142, #145 ) ) ;
#339 = CARTESIAN_POINT ( 'NONE',  ( 0.000000000000000000, 30.00000000000000000, 15.00000000000000000 ) ) ;
#340 = ORIENTED_EDGE ( 'NONE', *, *, #48, .T. ) ;
#341 = DIRECTION ( 'NONE',  ( 1.000000000000000000, 0.000000000000000000, 0.000000000000000000 ) ) ;
#342 = CARTESIAN_POINT ( 'NONE',  ( 8.599999999999999645, 3.000000000000000000, 0.000000000000000000 ) ) ;
#343 = ADVANCED_FACE ( 'NONE', ( #365, #225 ), #137, .F. ) ;
#344 = EDGE_LOOP ( 'NONE', ( #256, #148, #316, #336 ) ) ;
#345 = FACE_OUTER_BOUND ( 'NONE', #45, .T. ) ;
#346 =( NAMED_UNIT ( * ) SI_UNIT ( $, .STERADIAN. ) SOLID_ANGLE_UNIT ( ) );
#347 = CARTESIAN_POINT ( 'NONE',  ( 30.00000000000000000, 3.000000000000000000, -15.00000000000000000 ) ) ;
#348 = CARTESIAN_POINT ( 'NONE',  ( 0.000000000000000000, 30.00000000000000000, 15.00000000000000000 ) ) ;
#349 = ORIENTED_EDGE ( 'NONE', *, *, #285, .T. ) ;
#350 = FACE_OUTER_BOUND ( 'NONE', #127, .T. ) ;
#351 = DIRECTION ( 'NONE',  ( 0.000000000000000000, 0.000000000000000000, 1.000000000000000000 ) ) ;
#352 = LINE ( 'NONE', #213, #363 ) ;
#353 = PRODUCT_DEFINITION ( 'UNKNOWN', '', #207, #263 ) ;
#354 = VECTOR ( 'NONE', #288, 1000.000000000000000 ) ;
#355 = LINE ( 'NONE', #43, #294 ) ;
#356 =( NAMED_UNIT ( * ) PLANE_ANGLE_UNIT ( ) SI_UNIT ( $, .RADIAN. ) );
#357 = ORIENTED_EDGE ( 'NONE', *, *, #147, .F. ) ;
#358 = PRODUCT ( '02_3D_Step_Files093wu302a', '02_3D_Step_Files093wu302a', '', ( #128 ) ) ;
#359 = LINE ( 'NONE', #70, #337 ) ;
#360 = EDGE_CURVE ( 'NONE', #49, #272, #162, .T. ) ;
#361 =( LENGTH_UNIT ( ) NAMED_UNIT ( * ) SI_UNIT ( .MILLI., .METRE. ) );
#362 = CLOSED_SHELL ( 'NONE', ( #89, #371, #343, #330, #121, #74, #38, #232, #133, #16, #31, #32 ) ) ;
#363 = VECTOR ( 'NONE', #311, 1000.000000000000000 ) ;
#364 = CARTESIAN_POINT ( 'NONE',  ( 30.00000000000000000, 0.000000000000000000, -15.00000000000000000 ) ) ;
#365 = FACE_BOUND ( 'NONE', #408, .T. ) ;
#366 = ORIENTED_EDGE ( 'NONE', *, *, #398, .T. ) ;
#367 = CIRCLE ( 'NONE', #151, 3.400000000000033218 ) ;
#368 = ORIENTED_EDGE ( 'NONE', *, *, #308, .F. ) ;
#369 = EDGE_CURVE ( 'NONE', #269, #320, #401, .T. ) ;
#370 = EDGE_LOOP ( 'NONE', ( #18, #304, #201, #78 ) ) ;
#371 = ADVANCED_FACE ( 'NONE', ( #388 ), #181, .F. ) ;
#372 = VECTOR ( 'NONE', #277, 1000.000000000000000 ) ;
#373 = DIRECTION ( 'NONE',  ( -2.948295997280554610E-16, 1.000000000000000000, -0.000000000000000000 ) ) ;
#374 = PRESENTATION_STYLE_ASSIGNMENT (( #66 ) ) ;
#375 = EDGE_CURVE ( 'NONE', #247, #210, #293, .T. ) ;
#376 = APPLICATION_PROTOCOL_DEFINITION ( 'draft international standard', 'automotive_design', 1998, #309 ) ;
#377 = CARTESIAN_POINT ( 'NONE',  ( 3.000000000000003553, 2.999999999999999556, 15.00000000000000000 ) ) ;
#378 = AXIS2_PLACEMENT_3D ( 'NONE', #283, #410, #180 ) ;
#379 = ORIENTED_EDGE ( 'NONE', *, *, #284, .T. ) ;
#380 = PLANE ( 'NONE',  #227 ) ;
#381 = DIRECTION ( 'NONE',  ( -1.000000000000000000, -0.000000000000000000, -0.000000000000000000 ) ) ;
#382 = DIRECTION ( 'NONE',  ( 0.000000000000000000, 0.000000000000000000, -1.000000000000000000 ) ) ;
#383 = DIRECTION ( 'NONE',  ( 0.000000000000000000, 1.000000000000000000, 0.000000000000000000 ) ) ;
#384 = ORIENTED_EDGE ( 'NONE', *, *, #187, .T. ) ;
#385 = DIRECTION ( 'NONE',  ( -0.7071067811865440200, 0.7071067811865511255, 0.000000000000000000 ) ) ;
#386 = DIRECTION ( 'NONE',  ( -1.000000000000000000, -2.710505431213760592E-16, 0.000000000000000000 ) ) ;
#387 = CIRCLE ( 'NONE', #136, 6.399999999999999467 ) ;
#388 = FACE_OUTER_BOUND ( 'NONE', #395, .T. ) ;
#389 = DIRECTION ( 'NONE',  ( -2.948295997280554610E-16, 1.000000000000000000, -0.000000000000000000 ) ) ;
#390 = LINE ( 'NONE', #42, #51 ) ;
#391 = VECTOR ( 'NONE', #53, 1000.000000000000000 ) ;
#392 =( GEOMETRIC_REPRESENTATION_CONTEXT ( 3 ) GLOBAL_UNCERTAINTY_ASSIGNED_CONTEXT ( ( #73 ) ) GLOBAL_UNIT_ASSIGNED_CONTEXT ( ( #416, #356, #93 ) ) REPRESENTATION_CONTEXT ( 'NONE', 'WORKASPACE' ) );
#393 = CARTESIAN_POINT ( 'NONE',  ( 0.000000000000000000, 0.000000000000000000, -15.00000000000000000 ) ) ;
#394 = ORIENTED_EDGE ( 'NONE', *, *, #360, .T. ) ;
#395 = EDGE_LOOP ( 'NONE', ( #274, #307, #332, #275 ) ) ;
#396 = VECTOR ( 'NONE', #103, 1000.000000000000000 ) ;
#397 = ORIENTED_EDGE ( 'NONE', *, *, #165, .T. ) ;
#398 = EDGE_CURVE ( 'NONE', #272, #80, #359, .T. ) ;
#399 = VERTEX_POINT ( 'NONE', #327 ) ;
#400 = VERTEX_POINT ( 'NONE', #132 ) ;
#401 = CIRCLE ( 'NONE', #289, 6.400000000000001243 ) ;
#402 = CARTESIAN_POINT ( 'NONE',  ( 0.000000000000000000, 15.00000000000000000, 0.000000000000000000 ) ) ;
#403 = CARTESIAN_POINT ( 'NONE',  ( 3.000000000000003553, 2.999999999999999556, -15.00000000000000000 ) ) ;
#404 = CARTESIAN_POINT ( 'NONE',  ( 0.000000000000000000, 30.00000000000000000, -15.00000000000000000 ) ) ;
#405 = CARTESIAN_POINT ( 'NONE',  ( 0.000000000000000000, 0.000000000000000000, 0.000000000000000000 ) ) ;
#406 =( NAMED_UNIT ( * ) PLANE_ANGLE_UNIT ( ) SI_UNIT ( $, .RADIAN. ) );
#407 = DIRECTION ( 'NONE',  ( -0.000000000000000000, -0.000000000000000000, -1.000000000000000000 ) ) ;
#408 = EDGE_LOOP ( 'NONE', ( #334, #59 ) ) ;
#409 = DIRECTION ( 'NONE',  ( 0.000000000000000000, 0.000000000000000000, 1.000000000000000000 ) ) ;
#410 = DIRECTION ( 'NONE',  ( -1.000000000000000000, -0.000000000000000000, -0.000000000000000000 ) ) ;
#411 = AXIS2_PLACEMENT_3D ( 'NONE', #84, #341, #209 ) ;
#412 = COLOUR_RGB ( '',0.5019607843137254832, 0.5019607843137254832, 0.5019607843137254832 ) ;
#413 = ORIENTED_EDGE ( 'NONE', *, *, #302, .F. ) ;
#414 = FACE_BOUND ( 'NONE', #106, .T. ) ;
#415 = CARTESIAN_POINT ( 'NONE',  ( 0.000000000000000000, 30.00000000000000000, -15.00000000000000000 ) ) ;
#416 =( LENGTH_UNIT ( ) NAMED_UNIT ( * ) SI_UNIT ( .MILLI., .METRE. ) );
ENDSEC;
END-ISO-10303-21;
