ISO-10303-21;
HEADER;
FILE_DESCRIPTION (( 'STEP AP203' ),
    '1' );
FILE_NAME ('3_842_518_743_Bosch.step',
    '2024-06-10T08:21:36',
    ( '' ),
    ( '' ),
    'SwSTEP 2.0',
    'SolidWorks 2014',
    '' );
FILE_SCHEMA (( 'CONFIG_CONTROL_DESIGN' ));
ENDSEC;

DATA;
#1 = ORIENTED_EDGE ( 'NONE', *, *, #252, .T. ) ;
#2 = ORIENTED_EDGE ( 'NONE', *, *, #160, .F. ) ;
#3 = LOCAL_TIME ( 10, 21, 36.00000000000000000, #315 ) ;
#4 = VERTEX_POINT ( 'NONE', #161 ) ;
#5 = CIRCLE ( 'NONE', #76, 2.500000000000000000 ) ;
#6 = AXIS2_PLACEMENT_3D ( 'NONE', #232, #264, #326 ) ;
#7 = EDGE_LOOP ( 'NONE', ( #127, #83 ) ) ;
#8 = CC_DESIGN_PERSON_AND_ORGANIZATION_ASSIGNMENT ( #92, #254, ( #239 ) ) ;
#9 = CIRCLE ( 'NONE', #23, 8.000000000000000000 ) ;
#10 = PERSON_AND_ORGANIZATION ( #209, #259 ) ;
#11 = CIRCLE ( 'NONE', #309, 10.00000000000000000 ) ;
#12 = PLANE ( 'NONE',  #57 ) ;
#13 = FACE_OUTER_BOUND ( 'NONE', #220, .T. ) ;
#14 = ORIENTED_EDGE ( 'NONE', *, *, #159, .F. ) ;
#15 = DIRECTION ( 'NONE',  ( 0.0000000000000000000, 0.0000000000000000000, -1.000000000000000000 ) ) ;
#16 = LOCAL_TIME ( 10, 21, 36.00000000000000000, #189 ) ;
#17 = PERSON_AND_ORGANIZATION ( #209, #259 ) ;
#18 = LINE ( 'NONE', #352, #331 ) ;
#19 = DIRECTION ( 'NONE',  ( -1.000000000000000000, 0.0000000000000000000, 0.0000000000000000000 ) ) ;
#20 = EDGE_CURVE ( 'NONE', #212, #206, #125, .T. ) ;
#21 = CARTESIAN_POINT ( 'NONE',  ( 0.0000000000000000000, 0.0000000000000000000, 35.75000000000000000 ) ) ;
#22 = CARTESIAN_POINT ( 'NONE',  ( -2.500000000000000000, -3.367778697655172200E-016, 36.00000000000000000 ) ) ;
#23 = AXIS2_PLACEMENT_3D ( 'NONE', #175, #265, #54 ) ;
#24 = APPLICATION_CONTEXT ( 'configuration controlled 3d designs of mechanical parts and assemblies' ) ;
#25 = CARTESIAN_POINT ( 'NONE',  ( 0.0000000000000000000, 0.0000000000000000000, 6.500000000000000000 ) ) ;
#26 = DIRECTION ( 'NONE',  ( 0.0000000000000000000, 0.0000000000000000000, 1.000000000000000000 ) ) ;
#27 = CARTESIAN_POINT ( 'NONE',  ( 10.00000000000000000, 0.0000000000000000000, 37.79999999999999700 ) ) ;
#28 = DIRECTION ( 'NONE',  ( 0.0000000000000000000, 1.000000000000000000, 0.0000000000000000000 ) ) ;
#29 = CALENDAR_DATE ( 2024, 10, 6 ) ;
#30 = AXIS2_PLACEMENT_3D ( 'NONE', #249, #383, #237 ) ;
#31 = FACE_BOUND ( 'NONE', #210, .T. ) ;
#32 = ADVANCED_FACE ( 'NONE', ( #61 ), #12, .F. ) ;
#33 = CC_DESIGN_APPROVAL ( #372, ( #239 ) ) ;
#34 = ADVANCED_FACE ( 'NONE', ( #158 ), #251, .T. ) ;
#35 = CIRCLE ( 'NONE', #48, 2.500000000000000000 ) ;
#36 = ORIENTED_EDGE ( 'NONE', *, *, #323, .F. ) ;
#37 = EDGE_CURVE ( 'NONE', #62, #163, #337, .T. ) ;
#38 = UNCERTAINTY_MEASURE_WITH_UNIT (LENGTH_MEASURE( 1.000000000000000100E-005 ), #180, 'distance_accuracy_value', 'NONE');
#39 = PERSON_AND_ORGANIZATION ( #209, #259 ) ;
#40 = CARTESIAN_POINT ( 'NONE',  ( 0.0000000000000000000, 0.0000000000000000000, 36.00000000000000000 ) ) ;
#41 = EDGE_CURVE ( 'NONE', #280, #62, #185, .T. ) ;
#42 = APPROVAL_DATE_TIME ( #60, #325 ) ;
#43 = AXIS2_PLACEMENT_3D ( 'NONE', #178, #294, #382 ) ;
#44 = CARTESIAN_POINT ( 'NONE',  ( 0.0000000000000000000, 0.0000000000000000000, 6.000000000000000000 ) ) ;
#45 = EDGE_LOOP ( 'NONE', ( #273, #375, #299, #134 ) ) ;
#46 = APPROVAL_STATUS ( 'not_yet_approved' ) ;
#47 = APPLICATION_PROTOCOL_DEFINITION ( 'international standard', 'config_control_design', 1994, #24 ) ;
#48 = AXIS2_PLACEMENT_3D ( 'NONE', #40, #379, #130 ) ;
#49 = CARTESIAN_POINT ( 'NONE',  ( 0.0000000000000000000, 0.0000000000000000000, 0.0000000000000000000 ) ) ;
#50 = AXIS2_PLACEMENT_3D ( 'NONE', #67, #153, #156 ) ;
#51 = VERTEX_POINT ( 'NONE', #53 ) ;
#52 = CARTESIAN_POINT ( 'NONE',  ( 0.0000000000000000000, 0.0000000000000000000, 35.50000000000000000 ) ) ;
#53 = CARTESIAN_POINT ( 'NONE',  ( -10.00000000000000000, -1.224646799147353300E-015, 6.000000000000000000 ) ) ;
#54 = DIRECTION ( 'NONE',  ( -1.000000000000000000, 0.0000000000000000000, 0.0000000000000000000 ) ) ;
#55 = VERTEX_POINT ( 'NONE', #113 ) ;
#56 = DIRECTION ( 'NONE',  ( 1.000000000000000000, 0.0000000000000000000, 0.0000000000000000000 ) ) ;
#57 = AXIS2_PLACEMENT_3D ( 'NONE', #223, #74, #94 ) ;
#58 = DIRECTION ( 'NONE',  ( 1.000000000000000000, 0.0000000000000000000, 0.0000000000000000000 ) ) ;
#59 = LINE ( 'NONE', #238, #164 ) ;
#60 = DATE_AND_TIME ( #70, #3 ) ;
#61 = FACE_OUTER_BOUND ( 'NONE', #287, .T. ) ;
#62 = VERTEX_POINT ( 'NONE', #263 ) ;
#63 = AXIS2_PLACEMENT_3D ( 'NONE', #132, #284, #199 ) ;
#64 = ORIENTED_EDGE ( 'NONE', *, *, #96, .F. ) ;
#65 = FACE_OUTER_BOUND ( 'NONE', #242, .T. ) ;
#66 = AXIS2_PLACEMENT_3D ( 'NONE', #221, #244, #103 ) ;
#67 = CARTESIAN_POINT ( 'NONE',  ( 0.0000000000000000000, 0.0000000000000000000, 37.79999999999999700 ) ) ;
#68 = ORIENTED_EDGE ( 'NONE', *, *, #230, .F. ) ;
#69 = FACE_OUTER_BOUND ( 'NONE', #45, .T. ) ;
#70 = CALENDAR_DATE ( 2024, 10, 6 ) ;
#71 = VERTEX_POINT ( 'NONE', #22 ) ;
#72 = ORIENTED_EDGE ( 'NONE', *, *, #140, .F. ) ;
#73 = AXIS2_PLACEMENT_3D ( 'NONE', #123, #304, #361 ) ;
#74 = DIRECTION ( 'NONE',  ( 0.0000000000000000000, 0.0000000000000000000, -1.000000000000000000 ) ) ;
#75 = APPROVAL_ROLE ( '' ) ;
#76 = AXIS2_PLACEMENT_3D ( 'NONE', #290, #112, #171 ) ;
#77 = DIRECTION ( 'NONE',  ( 0.0000000000000000000, 0.0000000000000000000, -1.000000000000000000 ) ) ;
#78 = ORIENTED_EDGE ( 'NONE', *, *, #85, .T. ) ;
#79 = CC_DESIGN_APPROVAL ( #325, ( #150 ) ) ;
#80 = CONICAL_SURFACE ( 'NONE', #349, 2.750000000000000000, 0.7853981633973005100 ) ;
#81 = ORIENTED_EDGE ( 'NONE', *, *, #230, .T. ) ;
#82 = DIRECTION ( 'NONE',  ( 0.0000000000000000000, 0.0000000000000000000, -1.000000000000000000 ) ) ;
#83 = ORIENTED_EDGE ( 'NONE', *, *, #245, .F. ) ;
#84 = CIRCLE ( 'NONE', #30, 8.000000000000000000 ) ;
#85 = EDGE_CURVE ( 'NONE', #148, #55, #99, .T. ) ;
#86 = DIRECTION ( 'NONE',  ( 0.0000000000000000000, 0.0000000000000000000, -1.000000000000000000 ) ) ;
#87 = DIRECTION ( 'NONE',  ( -0.7071067811864429900, -8.659560562353653400E-017, -0.7071067811866521600 ) ) ;
#88 =( GEOMETRIC_REPRESENTATION_CONTEXT ( 3 ) GLOBAL_UNCERTAINTY_ASSIGNED_CONTEXT ( ( #38 ) ) GLOBAL_UNIT_ASSIGNED_CONTEXT ( ( #180, #236, #201 ) ) REPRESENTATION_CONTEXT ( 'NONE', 'WORKASPACE' ) );
#89 = ORIENTED_EDGE ( 'NONE', *, *, #215, .T. ) ;
#90 = AXIS2_PLACEMENT_3D ( 'NONE', #52, #318, #346 ) ;
#91 = APPROVAL_PERSON_ORGANIZATION ( #39, #152, #371 ) ;
#92 = PERSON_AND_ORGANIZATION ( #209, #259 ) ;
#93 = FACE_OUTER_BOUND ( 'NONE', #364, .T. ) ;
#94 = DIRECTION ( 'NONE',  ( 0.0000000000000000000, 1.000000000000000000, 0.0000000000000000000 ) ) ;
#95 = VECTOR ( 'NONE', #110, 999.9999999999998900 ) ;
#96 = EDGE_CURVE ( 'NONE', #182, #274, #11, .T. ) ;
#97 = ORIENTED_EDGE ( 'NONE', *, *, #160, .T. ) ;
#98 = DATE_AND_TIME ( #29, #336 ) ;
#99 = CIRCLE ( 'NONE', #271, 8.000000000000000000 ) ;
#100 = CC_DESIGN_SECURITY_CLASSIFICATION ( #150, ( #239 ) ) ;
#101 = CARTESIAN_POINT ( 'NONE',  ( 2.500000000000000000, 0.0000000000000000000, 36.00000000000000000 ) ) ;
#102 = EDGE_CURVE ( 'NONE', #55, #212, #18, .T. ) ;
#103 = DIRECTION ( 'NONE',  ( 1.000000000000000000, 0.0000000000000000000, 0.0000000000000000000 ) ) ;
#104 = LINE ( 'NONE', #370, #177 ) ;
#105 = DIRECTION ( 'NONE',  ( 0.0000000000000000000, 0.0000000000000000000, -1.000000000000000000 ) ) ;
#106 = APPROVAL_STATUS ( 'not_yet_approved' ) ;
#107 = PERSON_AND_ORGANIZATION ( #209, #259 ) ;
#108 = CARTESIAN_POINT ( 'NONE',  ( -8.000000000000000000, -9.797174393178825700E-016, 6.000000000000000000 ) ) ;
#109 = AXIS2_PLACEMENT_3D ( 'NONE', #320, #143, #233 ) ;
#110 = DIRECTION ( 'NONE',  ( 0.7071067811864429900, 0.0000000000000000000, -0.7071067811866521600 ) ) ;
#111 = AXIS2_PLACEMENT_3D ( 'NONE', #44, #253, #279 ) ;
#112 = DIRECTION ( 'NONE',  ( 0.0000000000000000000, 0.0000000000000000000, 1.000000000000000000 ) ) ;
#113 = CARTESIAN_POINT ( 'NONE',  ( -8.000000000000000000, -9.797174393178825700E-016, 6.500000000000000000 ) ) ;
#114 = CIRCLE ( 'NONE', #333, 10.00000000000000000 ) ;
#115 = ORIENTED_EDGE ( 'NONE', *, *, #340, .F. ) ;
#116 = CC_DESIGN_PERSON_AND_ORGANIZATION_ASSIGNMENT ( #269, #344, ( #186 ) ) ;
#117 = COORDINATED_UNIVERSAL_TIME_OFFSET ( 1, 0, .AHEAD. ) ;
#118 = ADVANCED_FACE ( 'NONE', ( #93, #31 ), #295, .F. ) ;
#119 = APPROVAL_PERSON_ORGANIZATION ( #296, #325, #75 ) ;
#120 = EDGE_CURVE ( 'NONE', #298, #274, #307, .T. ) ;
#121 = ORIENTED_EDGE ( 'NONE', *, *, #120, .F. ) ;
#122 = EDGE_LOOP ( 'NONE', ( #363, #193, #89, #288 ) ) ;
#123 = CARTESIAN_POINT ( 'NONE',  ( 0.0000000000000000000, 0.0000000000000000000, 6.525000000000000400 ) ) ;
#124 = CC_DESIGN_PERSON_AND_ORGANIZATION_ASSIGNMENT ( #17, #162, ( #239 ) ) ;
#125 = CIRCLE ( 'NONE', #111, 8.000000000000000000 ) ;
#126 = ORIENTED_EDGE ( 'NONE', *, *, #169, .F. ) ;
#127 = ORIENTED_EDGE ( 'NONE', *, *, #365, .F. ) ;
#128 = APPROVAL_ROLE ( '' ) ;
#129 = AXIS2_PLACEMENT_3D ( 'NONE', #321, #354, #56 ) ;
#130 = DIRECTION ( 'NONE',  ( -1.000000000000000000, 0.0000000000000000000, 0.0000000000000000000 ) ) ;
#131 = CARTESIAN_POINT ( 'NONE',  ( 0.0000000000000000000, 0.0000000000000000000, 37.79999999999999700 ) ) ;
#132 = CARTESIAN_POINT ( 'NONE',  ( 0.0000000000000000000, 0.0000000000000000000, 6.500000000000000000 ) ) ;
#133 = DIRECTION ( 'NONE',  ( 0.0000000000000000000, 0.0000000000000000000, -1.000000000000000000 ) ) ;
#134 = ORIENTED_EDGE ( 'NONE', *, *, #258, .F. ) ;
#135 = ORIENTED_EDGE ( 'NONE', *, *, #159, .T. ) ;
#136 = CARTESIAN_POINT ( 'NONE',  ( -3.000000000000000000, -3.673940397442059900E-016, 37.79999999999999700 ) ) ;
#137 = DIRECTION ( 'NONE',  ( -1.000000000000000000, 0.0000000000000000000, 0.0000000000000000000 ) ) ;
#138 = ORIENTED_EDGE ( 'NONE', *, *, #252, .F. ) ;
#139 = ADVANCED_FACE ( 'NONE', ( #168 ), #224, .T. ) ;
#140 = EDGE_CURVE ( 'NONE', #280, #4, #369, .T. ) ;
#141 = CARTESIAN_POINT ( 'NONE',  ( 10.00000000000000000, 0.0000000000000000000, 6.000000000000000000 ) ) ;
#142 = ADVANCED_FACE ( 'NONE', ( #385 ), #261, .T. ) ;
#143 = DIRECTION ( 'NONE',  ( 0.0000000000000000000, 0.0000000000000000000, -1.000000000000000000 ) ) ;
#144 = CYLINDRICAL_SURFACE ( 'NONE', #73, 8.000000000000000000 ) ;
#145 = VERTEX_POINT ( 'NONE', #101 ) ;
#146 = CIRCLE ( 'NONE', #109, 10.00000000000000000 ) ;
#147 = APPROVAL_DATE_TIME ( #374, #372 ) ;
#148 = VERTEX_POINT ( 'NONE', #216 ) ;
#149 = ORIENTED_EDGE ( 'NONE', *, *, #41, .T. ) ;
#150 = SECURITY_CLASSIFICATION ( '', '', #256 ) ;
#151 = ADVANCED_FACE ( 'NONE', ( #65 ), #144, .T. ) ;
#152 = APPROVAL ( #368, 'UNSPECIFIED' ) ;
#153 = DIRECTION ( 'NONE',  ( 0.0000000000000000000, 0.0000000000000000000, -1.000000000000000000 ) ) ;
#154 = ORIENTED_EDGE ( 'NONE', *, *, #169, .T. ) ;
#155 = CIRCLE ( 'NONE', #43, 3.000000000000000000 ) ;
#156 = DIRECTION ( 'NONE',  ( 1.000000000000000000, 0.0000000000000000000, 0.0000000000000000000 ) ) ;
#157 = ORIENTED_EDGE ( 'NONE', *, *, #187, .F. ) ;
#158 = FACE_OUTER_BOUND ( 'NONE', #122, .T. ) ;
#159 = EDGE_CURVE ( 'NONE', #206, #212, #84, .T. ) ;
#160 = EDGE_CURVE ( 'NONE', #71, #145, #5, .T. ) ;
#161 = CARTESIAN_POINT ( 'NONE',  ( 3.000000000000000000, 0.0000000000000000000, 6.500000000000000000 ) ) ;
#162 = PERSON_AND_ORGANIZATION_ROLE ( 'design_supplier' ) ;
#163 = VERTEX_POINT ( 'NONE', #378 ) ;
#164 = VECTOR ( 'NONE', #87, 999.9999999999998900 ) ;
#165 = CALENDAR_DATE ( 2024, 10, 6 ) ;
#166 = DATE_AND_TIME ( #286, #184 ) ;
#167 = CARTESIAN_POINT ( 'NONE',  ( 0.0000000000000000000, 0.0000000000000000000, 6.000000000000000000 ) ) ;
#168 = FACE_OUTER_BOUND ( 'NONE', #248, .T. ) ;
#169 = EDGE_CURVE ( 'NONE', #274, #182, #302, .T. ) ;
#170 = EDGE_CURVE ( 'NONE', #62, #280, #313, .T. ) ;
#171 = DIRECTION ( 'NONE',  ( -1.000000000000000000, 0.0000000000000000000, 0.0000000000000000000 ) ) ;
#172 = DIRECTION ( 'NONE',  ( -1.000000000000000000, 0.0000000000000000000, 0.0000000000000000000 ) ) ;
#173 = CARTESIAN_POINT ( 'NONE',  ( -10.00000000000000000, -1.224646799147353300E-015, 0.0000000000000000000 ) ) ;
#174 = DIRECTION ( 'NONE',  ( 0.0000000000000000000, 0.0000000000000000000, -1.000000000000000000 ) ) ;
#175 = CARTESIAN_POINT ( 'NONE',  ( 0.0000000000000000000, 0.0000000000000000000, 6.500000000000000000 ) ) ;
#176 = DIRECTION ( 'NONE',  ( 0.0000000000000000000, 0.0000000000000000000, -1.000000000000000000 ) ) ;
#177 = VECTOR ( 'NONE', #105, 1000.000000000000000 ) ;
#178 = CARTESIAN_POINT ( 'NONE',  ( 0.0000000000000000000, 0.0000000000000000000, 6.500000000000000000 ) ) ;
#179 = DIRECTION ( 'NONE',  ( 1.000000000000000000, 0.0000000000000000000, 0.0000000000000000000 ) ) ;
#180 =( LENGTH_UNIT ( ) NAMED_UNIT ( * ) SI_UNIT ( .MILLI., .METRE. ) );
#181 = CC_DESIGN_APPROVAL ( #152, ( #281 ) ) ;
#182 = VERTEX_POINT ( 'NONE', #173 ) ;
#183 = APPROVAL_DATE_TIME ( #197, #152 ) ;
#184 = LOCAL_TIME ( 10, 21, 36.00000000000000000, #362 ) ;
#185 = CIRCLE ( 'NONE', #356, 3.000000000000000000 ) ;
#186 = PRODUCT ( '3_842_518_743_Bosch', '3_842_518_743_Bosch', '', ( #314 ) ) ;
#187 = EDGE_CURVE ( 'NONE', #145, #71, #35, .T. ) ;
#188 = LINE ( 'NONE', #198, #334 ) ;
#189 = COORDINATED_UNIVERSAL_TIME_OFFSET ( 1, 0, .AHEAD. ) ;
#190 = CARTESIAN_POINT ( 'NONE',  ( 10.00000000000000000, 0.0000000000000000000, 0.0000000000000000000 ) ) ;
#191 = CC_DESIGN_PERSON_AND_ORGANIZATION_ASSIGNMENT ( #10, #282, ( #150 ) ) ;
#192 = FACE_OUTER_BOUND ( 'NONE', #229, .T. ) ;
#193 = ORIENTED_EDGE ( 'NONE', *, *, #300, .T. ) ;
#194 = DATE_TIME_ROLE ( 'creation_date' ) ;
#195 = CC_DESIGN_PERSON_AND_ORGANIZATION_ASSIGNMENT ( #107, #339, ( #281 ) ) ;
#196 = ORIENTED_EDGE ( 'NONE', *, *, #365, .T. ) ;
#197 = DATE_AND_TIME ( #165, #16 ) ;
#198 = CARTESIAN_POINT ( 'NONE',  ( -10.00000000000000000, -1.224646799147353300E-015, 37.79999999999999700 ) ) ;
#199 = DIRECTION ( 'NONE',  ( 1.000000000000000000, 0.0000000000000000000, 0.0000000000000000000 ) ) ;
#200 = CARTESIAN_POINT ( 'NONE',  ( 0.0000000000000000000, 0.0000000000000000000, 35.75000000000000000 ) ) ;
#201 =( NAMED_UNIT ( * ) SI_UNIT ( $, .STERADIAN. ) SOLID_ANGLE_UNIT ( ) );
#202 = CARTESIAN_POINT ( 'NONE',  ( 0.0000000000000000000, 0.0000000000000000000, 0.0000000000000000000 ) ) ;
#203 = ORIENTED_EDGE ( 'NONE', *, *, #340, .T. ) ;
#204 = CARTESIAN_POINT ( 'NONE',  ( 3.000000000000000000, 0.0000000000000000000, 35.50000000000000000 ) ) ;
#205 = DIRECTION ( 'NONE',  ( -1.000000000000000000, 0.0000000000000000000, 0.0000000000000000000 ) ) ;
#206 = VERTEX_POINT ( 'NONE', #225 ) ;
#207 = APPLICATION_CONTEXT ( 'configuration controlled 3d designs of mechanical parts and assemblies' ) ;
#208 = ADVANCED_FACE ( 'NONE', ( #351, #338 ), #283, .F. ) ;
#209 = PERSON ( 'UNSPECIFIED', 'UNSPECIFIED', 'UNSPECIFIED', ('UNSPECIFIED'), ('UNSPECIFIED'), ('UNSPECIFIED') ) ;
#210 = EDGE_LOOP ( 'NONE', ( #358, #240 ) ) ;
#211 = AXIS2_PLACEMENT_3D ( 'NONE', #257, #77, #311 ) ;
#212 = VERTEX_POINT ( 'NONE', #108 ) ;
#213 = VECTOR ( 'NONE', #360, 1000.000000000000000 ) ;
#214 = CC_DESIGN_DATE_AND_TIME_ASSIGNMENT ( #98, #194, ( #281 ) ) ;
#215 = EDGE_CURVE ( 'NONE', #148, #206, #104, .T. ) ;
#216 = CARTESIAN_POINT ( 'NONE',  ( 8.000000000000000000, 0.0000000000000000000, 6.500000000000000000 ) ) ;
#217 = CYLINDRICAL_SURFACE ( 'NONE', #6, 3.000000000000000000 ) ;
#218 = LOCAL_TIME ( 10, 21, 36.00000000000000000, #260 ) ;
#219 = ORIENTED_EDGE ( 'NONE', *, *, #245, .T. ) ;
#220 = EDGE_LOOP ( 'NONE', ( #115, #157, #1, #293 ) ) ;
#221 = CARTESIAN_POINT ( 'NONE',  ( 0.0000000000000000000, 0.0000000000000000000, 6.525000000000000400 ) ) ;
#222 = AXIS2_PLACEMENT_3D ( 'NONE', #200, #319, #179 ) ;
#223 = CARTESIAN_POINT ( 'NONE',  ( 0.0000000000000000000, 0.0000000000000000000, 36.00000000000000000 ) ) ;
#224 = CONICAL_SURFACE ( 'NONE', #222, 2.750000000000000000, 0.7853981633973005100 ) ;
#225 = CARTESIAN_POINT ( 'NONE',  ( 8.000000000000000000, 0.0000000000000000000, 6.000000000000000000 ) ) ;
#226 = ORIENTED_EDGE ( 'NONE', *, *, #85, .F. ) ;
#227 = PLANE ( 'NONE',  #384 ) ;
#228 = ORIENTED_EDGE ( 'NONE', *, *, #20, .T. ) ;
#229 = EDGE_LOOP ( 'NONE', ( #154, #328 ) ) ;
#230 = EDGE_CURVE ( 'NONE', #51, #182, #188, .T. ) ;
#231 = CARTESIAN_POINT ( 'NONE',  ( 0.0000000000000000000, 0.0000000000000000000, 35.50000000000000000 ) ) ;
#232 = CARTESIAN_POINT ( 'NONE',  ( 0.0000000000000000000, 0.0000000000000000000, 37.79999999999999700 ) ) ;
#233 = DIRECTION ( 'NONE',  ( -1.000000000000000000, 0.0000000000000000000, 0.0000000000000000000 ) ) ;
#234 = CARTESIAN_POINT ( 'NONE',  ( 0.0000000000000000000, 0.0000000000000000000, 6.500000000000000000 ) ) ;
#235 = ADVANCED_FACE ( 'NONE', ( #272 ), #324, .T. ) ;
#236 =( NAMED_UNIT ( * ) PLANE_ANGLE_UNIT ( ) SI_UNIT ( $, .RADIAN. ) );
#237 = DIRECTION ( 'NONE',  ( -1.000000000000000000, 0.0000000000000000000, 0.0000000000000000000 ) ) ;
#238 = CARTESIAN_POINT ( 'NONE',  ( -2.750000000000000000, -3.367778697655221000E-016, 35.75000000000000000 ) ) ;
#239 = PRODUCT_DEFINITION_FORMATION_WITH_SPECIFIED_SOURCE ( 'ANY', '', #186, .NOT_KNOWN. ) ;
#240 = ORIENTED_EDGE ( 'NONE', *, *, #258, .T. ) ;
#241 = CLOSED_SHELL ( 'NONE', ( #139, #292, #151, #142, #268, #235, #208, #34, #118, #327, #270, #32 ) ) ;
#242 = EDGE_LOOP ( 'NONE', ( #78, #297, #14, #367 ) ) ;
#243 = VECTOR ( 'NONE', #350, 1000.000000000000000 ) ;
#244 = DIRECTION ( 'NONE',  ( 0.0000000000000000000, 0.0000000000000000000, -1.000000000000000000 ) ) ;
#245 = EDGE_CURVE ( 'NONE', #51, #298, #114, .T. ) ;
#246 = PRODUCT_DEFINITION_SHAPE ( 'NONE', 'NONE',  #281 ) ;
#247 = LINE ( 'NONE', #317, #95 ) ;
#248 = EDGE_LOOP ( 'NONE', ( #2, #203, #303, #138 ) ) ;
#249 = CARTESIAN_POINT ( 'NONE',  ( 0.0000000000000000000, 0.0000000000000000000, 6.000000000000000000 ) ) ;
#250 = APPROVAL_PERSON_ORGANIZATION ( #329, #372, #128 ) ;
#251 = CYLINDRICAL_SURFACE ( 'NONE', #66, 8.000000000000000000 ) ;
#252 = EDGE_CURVE ( 'NONE', #145, #280, #247, .T. ) ;
#253 = DIRECTION ( 'NONE',  ( 0.0000000000000000000, 0.0000000000000000000, -1.000000000000000000 ) ) ;
#254 = PERSON_AND_ORGANIZATION_ROLE ( 'creator' ) ;
#255 = CIRCLE ( 'NONE', #63, 3.000000000000000000 ) ;
#256 = SECURITY_CLASSIFICATION_LEVEL ( 'unclassified' ) ;
#257 = CARTESIAN_POINT ( 'NONE',  ( 0.0000000000000000000, 0.0000000000000000000, 6.000000000000000000 ) ) ;
#258 = EDGE_CURVE ( 'NONE', #163, #4, #255, .T. ) ;
#259 = ORGANIZATION ( 'UNSPECIFIED', 'UNSPECIFIED', '' ) ;
#260 = COORDINATED_UNIVERSAL_TIME_OFFSET ( 1, 0, .AHEAD. ) ;
#261 = CYLINDRICAL_SURFACE ( 'NONE', #50, 10.00000000000000000 ) ;
#262 = CARTESIAN_POINT ( 'NONE',  ( 0.0000000000000000000, 0.0000000000000000000, 0.0000000000000000000 ) ) ;
#263 = CARTESIAN_POINT ( 'NONE',  ( -3.000000000000000000, -3.673940397442059900E-016, 35.50000000000000000 ) ) ;
#264 = DIRECTION ( 'NONE',  ( 0.0000000000000000000, 0.0000000000000000000, -1.000000000000000000 ) ) ;
#265 = DIRECTION ( 'NONE',  ( 0.0000000000000000000, 0.0000000000000000000, -1.000000000000000000 ) ) ;
#266 = DIRECTION ( 'NONE',  ( 0.0000000000000000000, 0.0000000000000000000, -1.000000000000000000 ) ) ;
#267 = AXIS2_PLACEMENT_3D ( 'NONE', #291, #26, #58 ) ;
#268 = ADVANCED_FACE ( 'NONE', ( #192 ), #227, .T. ) ;
#269 = PERSON_AND_ORGANIZATION ( #209, #259 ) ;
#270 = ADVANCED_FACE ( 'NONE', ( #13 ), #80, .T. ) ;
#271 = AXIS2_PLACEMENT_3D ( 'NONE', #25, #278, #380 ) ;
#272 = FACE_OUTER_BOUND ( 'NONE', #353, .T. ) ;
#273 = ORIENTED_EDGE ( 'NONE', *, *, #37, .F. ) ;
#274 = VERTEX_POINT ( 'NONE', #190 ) ;
#275 = AXIS2_PLACEMENT_3D ( 'NONE', #234, #176, #28 ) ;
#276 = CARTESIAN_POINT ( 'NONE',  ( 3.000000000000000000, 0.0000000000000000000, 37.79999999999999700 ) ) ;
#277 = ORIENTED_EDGE ( 'NONE', *, *, #120, .T. ) ;
#278 = DIRECTION ( 'NONE',  ( 0.0000000000000000000, 0.0000000000000000000, -1.000000000000000000 ) ) ;
#279 = DIRECTION ( 'NONE',  ( -1.000000000000000000, 0.0000000000000000000, 0.0000000000000000000 ) ) ;
#280 = VERTEX_POINT ( 'NONE', #204 ) ;
#281 = PRODUCT_DEFINITION ( 'UNKNOWN', '', #239, #357 ) ;
#282 = PERSON_AND_ORGANIZATION_ROLE ( 'classification_officer' ) ;
#283 = PLANE ( 'NONE',  #211 ) ;
#284 = DIRECTION ( 'NONE',  ( 0.0000000000000000000, 0.0000000000000000000, -1.000000000000000000 ) ) ;
#285 = DIRECTION ( 'NONE',  ( 0.0000000000000000000, 0.0000000000000000000, -1.000000000000000000 ) ) ;
#286 = CALENDAR_DATE ( 2024, 10, 6 ) ;
#287 = EDGE_LOOP ( 'NONE', ( #306, #97 ) ) ;
#288 = ORIENTED_EDGE ( 'NONE', *, *, #20, .F. ) ;
#289 = AXIS2_PLACEMENT_3D ( 'NONE', #262, #86, #137 ) ;
#290 = CARTESIAN_POINT ( 'NONE',  ( 0.0000000000000000000, 0.0000000000000000000, 36.00000000000000000 ) ) ;
#291 = CARTESIAN_POINT ( 'NONE',  ( 0.0000000000000000000, 0.0000000000000000000, 0.0000000000000000000 ) ) ;
#292 = ADVANCED_FACE ( 'NONE', ( #373 ), #217, .T. ) ;
#293 = ORIENTED_EDGE ( 'NONE', *, *, #170, .F. ) ;
#294 = DIRECTION ( 'NONE',  ( 0.0000000000000000000, 0.0000000000000000000, -1.000000000000000000 ) ) ;
#295 = PLANE ( 'NONE',  #275 ) ;
#296 = PERSON_AND_ORGANIZATION ( #209, #259 ) ;
#297 = ORIENTED_EDGE ( 'NONE', *, *, #102, .T. ) ;
#298 = VERTEX_POINT ( 'NONE', #141 ) ;
#299 = ORIENTED_EDGE ( 'NONE', *, *, #140, .T. ) ;
#300 = EDGE_CURVE ( 'NONE', #55, #148, #9, .T. ) ;
#301 = CC_DESIGN_DATE_AND_TIME_ASSIGNMENT ( #166, #308, ( #150 ) ) ;
#302 = CIRCLE ( 'NONE', #289, 10.00000000000000000 ) ;
#303 = ORIENTED_EDGE ( 'NONE', *, *, #41, .F. ) ;
#304 = DIRECTION ( 'NONE',  ( 0.0000000000000000000, 0.0000000000000000000, -1.000000000000000000 ) ) ;
#305 = EDGE_LOOP ( 'NONE', ( #149, #377, #36, #72 ) ) ;
#306 = ORIENTED_EDGE ( 'NONE', *, *, #187, .T. ) ;
#307 = LINE ( 'NONE', #27, #243 ) ;
#308 = DATE_TIME_ROLE ( 'classification_date' ) ;
#309 = AXIS2_PLACEMENT_3D ( 'NONE', #202, #322, #205 ) ;
#310 = ORIENTED_EDGE ( 'NONE', *, *, #300, .F. ) ;
#311 = DIRECTION ( 'NONE',  ( 0.0000000000000000000, 1.000000000000000000, 0.0000000000000000000 ) ) ;
#312 = CYLINDRICAL_SURFACE ( 'NONE', #129, 3.000000000000000000 ) ;
#313 = CIRCLE ( 'NONE', #90, 3.000000000000000000 ) ;
#314 = MECHANICAL_CONTEXT ( 'NONE', #207, 'mechanical' ) ;
#315 = COORDINATED_UNIVERSAL_TIME_OFFSET ( 1, 0, .AHEAD. ) ;
#316 = VECTOR ( 'NONE', #347, 1000.000000000000000 ) ;
#317 = CARTESIAN_POINT ( 'NONE',  ( 2.750000000000000000, 0.0000000000000000000, 35.75000000000000000 ) ) ;
#318 = DIRECTION ( 'NONE',  ( 0.0000000000000000000, 0.0000000000000000000, -1.000000000000000000 ) ) ;
#319 = DIRECTION ( 'NONE',  ( 0.0000000000000000000, 0.0000000000000000000, -1.000000000000000000 ) ) ;
#320 = CARTESIAN_POINT ( 'NONE',  ( 0.0000000000000000000, 0.0000000000000000000, 6.000000000000000000 ) ) ;
#321 = CARTESIAN_POINT ( 'NONE',  ( 0.0000000000000000000, 0.0000000000000000000, 37.79999999999999700 ) ) ;
#322 = DIRECTION ( 'NONE',  ( 0.0000000000000000000, 0.0000000000000000000, -1.000000000000000000 ) ) ;
#323 = EDGE_CURVE ( 'NONE', #4, #163, #155, .T. ) ;
#324 = CYLINDRICAL_SURFACE ( 'NONE', #335, 10.00000000000000000 ) ;
#325 = APPROVAL ( #106, 'UNSPECIFIED' ) ;
#326 = DIRECTION ( 'NONE',  ( 1.000000000000000000, 0.0000000000000000000, 0.0000000000000000000 ) ) ;
#327 = ADVANCED_FACE ( 'NONE', ( #69 ), #312, .T. ) ;
#328 = ORIENTED_EDGE ( 'NONE', *, *, #96, .T. ) ;
#329 = PERSON_AND_ORGANIZATION ( #209, #259 ) ;
#330 = CALENDAR_DATE ( 2024, 10, 6 ) ;
#331 = VECTOR ( 'NONE', #266, 1000.000000000000000 ) ;
#332 = ADVANCED_BREP_SHAPE_REPRESENTATION ( '3_842_518_743_Bosch', ( #343, #267 ), #88 ) ;
#333 = AXIS2_PLACEMENT_3D ( 'NONE', #167, #285, #19 ) ;
#334 = VECTOR ( 'NONE', #15, 1000.000000000000000 ) ;
#335 = AXIS2_PLACEMENT_3D ( 'NONE', #131, #342, #341 ) ;
#336 = LOCAL_TIME ( 10, 21, 36.00000000000000000, #117 ) ;
#337 = LINE ( 'NONE', #136, #316 ) ;
#338 = FACE_BOUND ( 'NONE', #381, .T. ) ;
#339 = PERSON_AND_ORGANIZATION_ROLE ( 'creator' ) ;
#340 = EDGE_CURVE ( 'NONE', #71, #62, #59, .T. ) ;
#341 = DIRECTION ( 'NONE',  ( 1.000000000000000000, 0.0000000000000000000, 0.0000000000000000000 ) ) ;
#342 = DIRECTION ( 'NONE',  ( 0.0000000000000000000, 0.0000000000000000000, -1.000000000000000000 ) ) ;
#343 = MANIFOLD_SOLID_BREP ( 'Imported1', #241 ) ;
#344 = PERSON_AND_ORGANIZATION_ROLE ( 'design_owner' ) ;
#345 = DIRECTION ( 'NONE',  ( 0.0000000000000000000, 1.000000000000000000, 0.0000000000000000000 ) ) ;
#346 = DIRECTION ( 'NONE',  ( -1.000000000000000000, 0.0000000000000000000, 0.0000000000000000000 ) ) ;
#347 = DIRECTION ( 'NONE',  ( 0.0000000000000000000, 0.0000000000000000000, -1.000000000000000000 ) ) ;
#348 = SHAPE_DEFINITION_REPRESENTATION ( #246, #332 ) ;
#349 = AXIS2_PLACEMENT_3D ( 'NONE', #21, #133, #376 ) ;
#350 = DIRECTION ( 'NONE',  ( 0.0000000000000000000, 0.0000000000000000000, -1.000000000000000000 ) ) ;
#351 = FACE_OUTER_BOUND ( 'NONE', #7, .T. ) ;
#352 = CARTESIAN_POINT ( 'NONE',  ( -8.000000000000000000, -9.797174393178825700E-016, 6.525000000000000400 ) ) ;
#353 = EDGE_LOOP ( 'NONE', ( #68, #219, #277, #64 ) ) ;
#354 = DIRECTION ( 'NONE',  ( 0.0000000000000000000, 0.0000000000000000000, -1.000000000000000000 ) ) ;
#355 = APPLICATION_PROTOCOL_DEFINITION ( 'international standard', 'config_control_design', 1994, #207 ) ;
#356 = AXIS2_PLACEMENT_3D ( 'NONE', #231, #174, #172 ) ;
#357 = DESIGN_CONTEXT ( 'detailed design', #24, 'design' ) ;
#358 = ORIENTED_EDGE ( 'NONE', *, *, #323, .T. ) ;
#359 = EDGE_LOOP ( 'NONE', ( #196, #81, #126, #121 ) ) ;
#360 = DIRECTION ( 'NONE',  ( 0.0000000000000000000, 0.0000000000000000000, -1.000000000000000000 ) ) ;
#361 = DIRECTION ( 'NONE',  ( 1.000000000000000000, 0.0000000000000000000, 0.0000000000000000000 ) ) ;
#362 = COORDINATED_UNIVERSAL_TIME_OFFSET ( 1, 0, .AHEAD. ) ;
#363 = ORIENTED_EDGE ( 'NONE', *, *, #102, .F. ) ;
#364 = EDGE_LOOP ( 'NONE', ( #226, #310 ) ) ;
#365 = EDGE_CURVE ( 'NONE', #298, #51, #146, .T. ) ;
#366 = PRODUCT_RELATED_PRODUCT_CATEGORY ( 'detail', '', ( #186 ) ) ;
#367 = ORIENTED_EDGE ( 'NONE', *, *, #215, .F. ) ;
#368 = APPROVAL_STATUS ( 'not_yet_approved' ) ;
#369 = LINE ( 'NONE', #276, #213 ) ;
#370 = CARTESIAN_POINT ( 'NONE',  ( 8.000000000000000000, 0.0000000000000000000, 6.525000000000000400 ) ) ;
#371 = APPROVAL_ROLE ( '' ) ;
#372 = APPROVAL ( #46, 'UNSPECIFIED' ) ;
#373 = FACE_OUTER_BOUND ( 'NONE', #305, .T. ) ;
#374 = DATE_AND_TIME ( #330, #218 ) ;
#375 = ORIENTED_EDGE ( 'NONE', *, *, #170, .T. ) ;
#376 = DIRECTION ( 'NONE',  ( 1.000000000000000000, 0.0000000000000000000, 0.0000000000000000000 ) ) ;
#377 = ORIENTED_EDGE ( 'NONE', *, *, #37, .T. ) ;
#378 = CARTESIAN_POINT ( 'NONE',  ( -3.000000000000000000, -3.673940397442059900E-016, 6.500000000000000000 ) ) ;
#379 = DIRECTION ( 'NONE',  ( 0.0000000000000000000, 0.0000000000000000000, 1.000000000000000000 ) ) ;
#380 = DIRECTION ( 'NONE',  ( -1.000000000000000000, 0.0000000000000000000, 0.0000000000000000000 ) ) ;
#381 = EDGE_LOOP ( 'NONE', ( #135, #228 ) ) ;
#382 = DIRECTION ( 'NONE',  ( 1.000000000000000000, 0.0000000000000000000, 0.0000000000000000000 ) ) ;
#383 = DIRECTION ( 'NONE',  ( 0.0000000000000000000, 0.0000000000000000000, -1.000000000000000000 ) ) ;
#384 = AXIS2_PLACEMENT_3D ( 'NONE', #49, #82, #345 ) ;
#385 = FACE_OUTER_BOUND ( 'NONE', #359, .T. ) ;
ENDSEC;
END-ISO-10303-21;
