ISO-10303-21;
HEADER;
FILE_DESCRIPTION (( 'STEP AP203' ),
    '1' );
FILE_NAME ('3_842_510_462_Bosch.step',
    '2024-06-10T09:23:59',
    ( '' ),
    ( '' ),
    'SwSTEP 2.0',
    'SolidWorks 2014',
    '' );
FILE_SCHEMA (( 'CONFIG_CONTROL_DESIGN' ));
ENDSEC;

DATA;
#1 = DIRECTION ( 'NONE',  ( 0.0000000000000000000, 0.0000000000000000000, -1.000000000000000000 ) ) ;
#2 = EDGE_LOOP ( 'NONE', ( #70, #226, #307, #35 ) ) ;
#3 = CC_DESIGN_APPROVAL ( #127, ( #93 ) ) ;
#4 = DESIGN_CONTEXT ( 'detailed design', #78, 'design' ) ;
#5 = ORIENTED_EDGE ( 'NONE', *, *, #72, .F. ) ;
#6 = APPROVAL_DATE_TIME ( #281, #127 ) ;
#7 = CIRCLE ( 'NONE', #136, 10.00000000000000000 ) ;
#8 = VERTEX_POINT ( 'NONE', #164 ) ;
#9 = DIRECTION ( 'NONE',  ( -7.926992000000000100E-014, 1.000000000000000000, -6.123032000000000300E-017 ) ) ;
#10 = ORIENTED_EDGE ( 'NONE', *, *, #62, .F. ) ;
#11 = CARTESIAN_POINT ( 'NONE',  ( -3.761647259602648900E-013, 9.500000000000000000, -3.000000000000000900 ) ) ;
#12 = ORIENTED_EDGE ( 'NONE', *, *, #259, .T. ) ;
#13 = ORIENTED_EDGE ( 'NONE', *, *, #176, .T. ) ;
#14 = DATE_AND_TIME ( #111, #298 ) ;
#15 = DIRECTION ( 'NONE',  ( 0.0000000000000000000, 0.0000000000000000000, 1.000000000000000000 ) ) ;
#16 = FACE_OUTER_BOUND ( 'NONE', #126, .T. ) ;
#17 = ADVANCED_FACE ( 'NONE', ( #49 ), #240, .T. ) ;
#18 = AXIS2_PLACEMENT_3D ( 'NONE', #215, #261, #219 ) ;
#19 = VERTEX_POINT ( 'NONE', #237 ) ;
#20 = CARTESIAN_POINT ( 'NONE',  ( -7.530642400000000700E-013, 9.500000000000000000, -5.816880399999999500E-016 ) ) ;
#21 = APPLICATION_PROTOCOL_DEFINITION ( 'international standard', 'config_control_design', 1994, #37 ) ;
#22 = EDGE_CURVE ( 'NONE', #258, #134, #255, .T. ) ;
#23 = CC_DESIGN_DATE_AND_TIME_ASSIGNMENT ( #210, #264, ( #149 ) ) ;
#24 = DIRECTION ( 'NONE',  ( 0.0000000000000000000, 0.0000000000000000000, 1.000000000000000000 ) ) ;
#25 = ORIENTED_EDGE ( 'NONE', *, *, #72, .T. ) ;
#26 = CARTESIAN_POINT ( 'NONE',  ( 1.585398400000000000E-012, -20.00000000000000000, 1.224606399999999900E-015 ) ) ;
#27 = LINE ( 'NONE', #262, #135 ) ;
#28 = CONICAL_SURFACE ( 'NONE', #130, 1.000000000000000000, 0.7853981625000003900 ) ;
#29 = DIRECTION ( 'NONE',  ( -7.926992000000000100E-014, 1.000000000000000000, -6.123032000000000300E-017 ) ) ;
#30 = DIRECTION ( 'NONE',  ( -1.000000000000000000, -7.979727989493312600E-014, 0.0000000000000000000 ) ) ;
#31 = ORIENTED_EDGE ( 'NONE', *, *, #246, .T. ) ;
#32 = VECTOR ( 'NONE', #167, 1000.000000000000000 ) ;
#33 =( GEOMETRIC_REPRESENTATION_CONTEXT ( 3 ) GLOBAL_UNCERTAINTY_ASSIGNED_CONTEXT ( ( #272 ) ) GLOBAL_UNIT_ASSIGNED_CONTEXT ( ( #177, #76, #253 ) ) REPRESENTATION_CONTEXT ( 'NONE', 'WORKASPACE' ) );
#34 = EDGE_CURVE ( 'NONE', #285, #75, #197, .T. ) ;
#35 = ORIENTED_EDGE ( 'NONE', *, *, #227, .T. ) ;
#36 = CIRCLE ( 'NONE', #148, 2.500000000000000000 ) ;
#37 = APPLICATION_CONTEXT ( 'configuration controlled 3d designs of mechanical parts and assemblies' ) ;
#38 = APPROVAL_STATUS ( 'not_yet_approved' ) ;
#39 = FACE_OUTER_BOUND ( 'NONE', #137, .T. ) ;
#40 = DIRECTION ( 'NONE',  ( 4.853722567974400100E-030, -6.123032000000000300E-017, -1.000000000000000000 ) ) ;
#41 = AXIS2_PLACEMENT_3D ( 'NONE', #241, #189, #42 ) ;
#42 = DIRECTION ( 'NONE',  ( 0.0000000000000000000, 0.0000000000000000000, -1.000000000000000000 ) ) ;
#43 = PERSON ( 'UNSPECIFIED', 'UNSPECIFIED', 'UNSPECIFIED', ('UNSPECIFIED'), ('UNSPECIFIED'), ('UNSPECIFIED') ) ;
#44 = ADVANCED_FACE ( 'NONE', ( #184 ), #56, .T. ) ;
#45 = ADVANCED_FACE ( 'NONE', ( #114 ), #28, .T. ) ;
#46 = AXIS2_PLACEMENT_3D ( 'NONE', #208, #161, #30 ) ;
#47 = CC_DESIGN_PERSON_AND_ORGANIZATION_ASSIGNMENT ( #318, #187, ( #93 ) ) ;
#48 = DIRECTION ( 'NONE',  ( -1.000000000000000000, -7.979727989493312600E-014, 0.0000000000000000000 ) ) ;
#49 = FACE_OUTER_BOUND ( 'NONE', #321, .T. ) ;
#50 = CARTESIAN_POINT ( 'NONE',  ( 1.704303280000000000E-012, -21.50000000000000000, 10.00000000000000200 ) ) ;
#51 = LOCAL_TIME ( 11, 23, 59.00000000000000000, #90 ) ;
#52 = LINE ( 'NONE', #50, #109 ) ;
#53 = CARTESIAN_POINT ( 'NONE',  ( 1.704303280000000000E-012, -21.50000000000000000, 1.316451880000000000E-015 ) ) ;
#54 = AXIS2_PLACEMENT_3D ( 'NONE', #152, #270, #297 ) ;
#55 = PRODUCT_DEFINITION_SHAPE ( 'NONE', 'NONE',  #93 ) ;
#56 = CYLINDRICAL_SURFACE ( 'NONE', #165, 10.00000000000000000 ) ;
#57 = CC_DESIGN_PERSON_AND_ORGANIZATION_ASSIGNMENT ( #256, #190, ( #149 ) ) ;
#58 = APPROVAL_DATE_TIME ( #14, #87 ) ;
#59 = AXIS2_PLACEMENT_3D ( 'NONE', #229, #123, #71 ) ;
#60 = EDGE_LOOP ( 'NONE', ( #207, #139, #80, #269, #280 ) ) ;
#61 = DATE_AND_TIME ( #168, #244 ) ;
#62 = EDGE_CURVE ( 'NONE', #173, #108, #283, .T. ) ;
#63 = CC_DESIGN_DATE_AND_TIME_ASSIGNMENT ( #192, #94, ( #93 ) ) ;
#64 = ORIENTED_EDGE ( 'NONE', *, *, #34, .F. ) ;
#65 = DIRECTION ( 'NONE',  ( -0.7071067805519000200, -0.7071067818211951300, 4.329637452507852700E-017 ) ) ;
#66 = ORIENTED_EDGE ( 'NONE', *, *, #214, .F. ) ;
#67 = APPROVAL_ROLE ( '' ) ;
#68 = APPROVAL_PERSON_ORGANIZATION ( #133, #127, #222 ) ;
#69 = LINE ( 'NONE', #286, #32 ) ;
#70 = ORIENTED_EDGE ( 'NONE', *, *, #176, .F. ) ;
#71 = DIRECTION ( 'NONE',  ( 0.0000000000000000000, 0.0000000000000000000, -1.000000000000000000 ) ) ;
#72 = EDGE_CURVE ( 'NONE', #173, #8, #36, .T. ) ;
#73 = CC_DESIGN_SECURITY_CLASSIFICATION ( #149, ( #247 ) ) ;
#74 = CARTESIAN_POINT ( 'NONE',  ( 0.0000000000000000000, 0.0000000000000000000, 0.0000000000000000000 ) ) ;
#75 = VERTEX_POINT ( 'NONE', #122 ) ;
#76 =( NAMED_UNIT ( * ) PLANE_ANGLE_UNIT ( ) SI_UNIT ( $, .RADIAN. ) );
#77 = APPROVAL_PERSON_ORGANIZATION ( #228, #113, #67 ) ;
#78 = APPLICATION_CONTEXT ( 'configuration controlled 3d designs of mechanical parts and assemblies' ) ;
#79 = EDGE_CURVE ( 'NONE', #285, #234, #242, .T. ) ;
#80 = ORIENTED_EDGE ( 'NONE', *, *, #214, .T. ) ;
#81 = ORIENTED_EDGE ( 'NONE', *, *, #162, .T. ) ;
#82 = APPROVAL_PERSON_ORGANIZATION ( #141, #87, #267 ) ;
#83 = FACE_OUTER_BOUND ( 'NONE', #316, .T. ) ;
#84 = VECTOR ( 'NONE', #319, 1000.000000000000100 ) ;
#85 = CARTESIAN_POINT ( 'NONE',  ( 7.926992000000001900E-013, 6.123032000628372300E-016, 10.00000000000000000 ) ) ;
#86 = EDGE_CURVE ( 'NONE', #134, #163, #52, .T. ) ;
#87 = APPROVAL ( #38, 'UNSPECIFIED' ) ;
#88 = ORIENTED_EDGE ( 'NONE', *, *, #305, .F. ) ;
#89 = CARTESIAN_POINT ( 'NONE',  ( 7.939238467991475900E-013, -20.00000000000000000, -9.999999999999998200 ) ) ;
#90 = COORDINATED_UNIVERSAL_TIME_OFFSET ( 1, 0, .AHEAD. ) ;
#91 = CARTESIAN_POINT ( 'NONE',  ( 1.704303280000000000E-012, -21.50000000000000000, 1.316451880000000000E-015 ) ) ;
#92 = LINE ( 'NONE', #289, #158 ) ;
#93 = PRODUCT_DEFINITION ( 'UNKNOWN', '', #247, #4 ) ;
#94 = DATE_TIME_ROLE ( 'creation_date' ) ;
#95 = AXIS2_PLACEMENT_3D ( 'NONE', #232, #159, #1 ) ;
#96 = CARTESIAN_POINT ( 'NONE',  ( 1.704303280000000000E-012, -21.50000000000000000, 1.316451880000000000E-015 ) ) ;
#97 = CARTESIAN_POINT ( 'NONE',  ( -3.761647259602556000E-013, -1.836909600298185300E-016, -3.000000000000000000 ) ) ;
#98 = APPLICATION_PROTOCOL_DEFINITION ( 'international standard', 'config_control_design', 1994, #78 ) ;
#99 = EDGE_LOOP ( 'NONE', ( #311, #209, #274, #31, #66 ) ) ;
#100 = DIRECTION ( 'NONE',  ( -7.926992000000000100E-014, 1.000000000000000000, -6.123032000000000300E-017 ) ) ;
#101 = DIRECTION ( 'NONE',  ( 7.926992000000000100E-014, -1.000000000000000000, 6.123032000000000300E-017 ) ) ;
#102 = CYLINDRICAL_SURFACE ( 'NONE', #142, 10.00000000000000000 ) ;
#103 = AXIS2_PLACEMENT_3D ( 'NONE', #96, #198, #182 ) ;
#104 = ORGANIZATION ( 'UNSPECIFIED', 'UNSPECIFIED', '' ) ;
#105 = ORIENTED_EDGE ( 'NONE', *, *, #278, .F. ) ;
#106 = EDGE_CURVE ( 'NONE', #19, #301, #288, .T. ) ;
#107 = PRODUCT_RELATED_PRODUCT_CATEGORY ( 'detail', '', ( #117 ) ) ;
#108 = VERTEX_POINT ( 'NONE', #125 ) ;
#109 = VECTOR ( 'NONE', #100, 1000.000000000000000 ) ;
#110 = AXIS2_PLACEMENT_3D ( 'NONE', #175, #252, #310 ) ;
#111 = CALENDAR_DATE ( 2024, 10, 6 ) ;
#112 = AXIS2_PLACEMENT_3D ( 'NONE', #206, #323, #254 ) ;
#113 = APPROVAL ( #313, 'UNSPECIFIED' ) ;
#114 = FACE_OUTER_BOUND ( 'NONE', #147, .T. ) ;
#115 = COORDINATED_UNIVERSAL_TIME_OFFSET ( 1, 0, .AHEAD. ) ;
#116 = CARTESIAN_POINT ( 'NONE',  ( 2.499999999999207300, 10.00000000000019700, -9.337734895539661600E-016 ) ) ;
#117 = PRODUCT ( '3_842_510_462_Bosch', '3_842_510_462_Bosch', '', ( #200 ) ) ;
#118 = ADVANCED_FACE ( 'NONE', ( #39, #143 ), #273, .T. ) ;
#119 = CARTESIAN_POINT ( 'NONE',  ( -11.00000000000000000, -8.726426535199999700E-013, -11.00000000000000000 ) ) ;
#120 = DIRECTION ( 'NONE',  ( -7.926992000000000100E-014, 1.000000000000000000, -6.123032000000000300E-017 ) ) ;
#121 = CLOSED_SHELL ( 'NONE', ( #44, #145, #45, #17, #217, #194, #118, #292, #268 ) ) ;
#122 = CARTESIAN_POINT ( 'NONE',  ( -3.765321199999998300E-013, 1.836909599701523500E-016, 3.000000000000000000 ) ) ;
#123 = DIRECTION ( 'NONE',  ( 7.926992000000000100E-014, -1.000000000000000000, 6.123032000000000300E-017 ) ) ;
#124 = EDGE_CURVE ( 'NONE', #75, #285, #230, .T. ) ;
#125 = CARTESIAN_POINT ( 'NONE',  ( 2.999999996409456600, 9.500000000000238000, -9.490820793045832700E-016 ) ) ;
#126 = EDGE_LOOP ( 'NONE', ( #12, #302 ) ) ;
#127 = APPROVAL ( #290, 'UNSPECIFIED' ) ;
#128 = PERSON_AND_ORGANIZATION ( #43, #104 ) ;
#129 = CARTESIAN_POINT ( 'NONE',  ( 1.704303280000000000E-012, -21.50000000000000000, 1.316451880000000000E-015 ) ) ;
#130 = AXIS2_PLACEMENT_3D ( 'NONE', #271, #251, #48 ) ;
#131 = CC_DESIGN_PERSON_AND_ORGANIZATION_ASSIGNMENT ( #128, #140, ( #247 ) ) ;
#132 = VERTEX_POINT ( 'NONE', #195 ) ;
#133 = PERSON_AND_ORGANIZATION ( #43, #104 ) ;
#134 = VERTEX_POINT ( 'NONE', #294 ) ;
#135 = VECTOR ( 'NONE', #65, 1000.000000000000000 ) ;
#136 = AXIS2_PLACEMENT_3D ( 'NONE', #74, #299, #295 ) ;
#137 = EDGE_LOOP ( 'NONE', ( #277, #105 ) ) ;
#138 = CARTESIAN_POINT ( 'NONE',  ( -2.750000000000794900, 9.999999999999779700, -2.750000000000000000 ) ) ;
#139 = ORIENTED_EDGE ( 'NONE', *, *, #34, .T. ) ;
#140 = PERSON_AND_ORGANIZATION_ROLE ( 'design_supplier' ) ;
#141 = PERSON_AND_ORGANIZATION ( #43, #104 ) ;
#142 = AXIS2_PLACEMENT_3D ( 'NONE', #53, #172, #24 ) ;
#143 = FACE_BOUND ( 'NONE', #218, .T. ) ;
#144 = SECURITY_CLASSIFICATION_LEVEL ( 'unclassified' ) ;
#145 = ADVANCED_FACE ( 'NONE', ( #304 ), #266, .T. ) ;
#146 = DIRECTION ( 'NONE',  ( 0.0000000000000000000, 0.0000000000000000000, -1.000000000000000000 ) ) ;
#147 = EDGE_LOOP ( 'NONE', ( #188, #180, #223, #263, #216 ) ) ;
#148 = AXIS2_PLACEMENT_3D ( 'NONE', #150, #315, #146 ) ;
#149 = SECURITY_CLASSIFICATION ( '', '', #144 ) ;
#150 = CARTESIAN_POINT ( 'NONE',  ( -7.926991999999999900E-013, 10.00000000000000000, -6.123031999999999300E-016 ) ) ;
#151 = DIRECTION ( 'NONE',  ( 7.926992000000000100E-014, -1.000000000000000000, 6.123032000000000300E-017 ) ) ;
#152 = CARTESIAN_POINT ( 'NONE',  ( -10.99999999999842100, -20.00000000000084900, -11.00000000000000000 ) ) ;
#153 = ORIENTED_EDGE ( 'NONE', *, *, #124, .F. ) ;
#154 = DIRECTION ( 'NONE',  ( 0.0000000000000000000, 0.0000000000000000000, -1.000000000000000000 ) ) ;
#155 = ORIENTED_EDGE ( 'NONE', *, *, #106, .F. ) ;
#156 = COORDINATED_UNIVERSAL_TIME_OFFSET ( 1, 0, .AHEAD. ) ;
#157 = ADVANCED_BREP_SHAPE_REPRESENTATION ( '3_842_510_462_Bosch', ( #238, #110 ), #33 ) ;
#158 = VECTOR ( 'NONE', #9, 1000.000000000000000 ) ;
#159 = DIRECTION ( 'NONE',  ( 7.926992000000000100E-014, -1.000000000000000000, 6.123032000000000300E-017 ) ) ;
#160 = ORIENTED_EDGE ( 'NONE', *, *, #22, .F. ) ;
#161 = DIRECTION ( 'NONE',  ( 7.926992000000000100E-014, -1.000000000000000000, 6.123032000000000300E-017 ) ) ;
#162 = EDGE_CURVE ( 'NONE', #8, #301, #27, .T. ) ;
#163 = VERTEX_POINT ( 'NONE', #85 ) ;
#164 = CARTESIAN_POINT ( 'NONE',  ( -2.500000000000792700, 9.999999999999802800, -5.969956199917513100E-016 ) ) ;
#165 = AXIS2_PLACEMENT_3D ( 'NONE', #129, #29, #205 ) ;
#166 = EDGE_LOOP ( 'NONE', ( #160, #13, #203, #249 ) ) ;
#167 = DIRECTION ( 'NONE',  ( -7.926992000000000100E-014, 1.000000000000000000, -6.123032000000000300E-017 ) ) ;
#168 = CALENDAR_DATE ( 2024, 10, 6 ) ;
#169 = CC_DESIGN_PERSON_AND_ORGANIZATION_ASSIGNMENT ( #199, #225, ( #117 ) ) ;
#170 = DIRECTION ( 'NONE',  ( 4.853722567974400100E-030, -6.123032000000000300E-017, -1.000000000000000000 ) ) ;
#171 = DIRECTION ( 'NONE',  ( 4.853722567974399400E-030, -6.123032000000000300E-017, -1.000000000000000000 ) ) ;
#172 = DIRECTION ( 'NONE',  ( -7.926992000000000100E-014, 1.000000000000000000, -6.123032000000000300E-017 ) ) ;
#173 = VERTEX_POINT ( 'NONE', #116 ) ;
#174 = CARTESIAN_POINT ( 'NONE',  ( 0.9999999999990884000, 11.50000000000008000, -8.266133599147353000E-016 ) ) ;
#175 = CARTESIAN_POINT ( 'NONE',  ( 0.0000000000000000000, 0.0000000000000000000, 0.0000000000000000000 ) ) ;
#176 = EDGE_CURVE ( 'NONE', #258, #132, #69, .T. ) ;
#177 =( LENGTH_UNIT ( ) NAMED_UNIT ( * ) SI_UNIT ( .MILLI., .METRE. ) );
#178 = FACE_OUTER_BOUND ( 'NONE', #2, .T. ) ;
#179 = EDGE_CURVE ( 'NONE', #301, #234, #324, .T. ) ;
#180 = ORIENTED_EDGE ( 'NONE', *, *, #62, .T. ) ;
#181 = CALENDAR_DATE ( 2024, 10, 6 ) ;
#182 = DIRECTION ( 'NONE',  ( 0.0000000000000000000, 0.0000000000000000000, 1.000000000000000000 ) ) ;
#183 = AXIS2_PLACEMENT_3D ( 'NONE', #201, #317, #154 ) ;
#184 = FACE_OUTER_BOUND ( 'NONE', #166, .T. ) ;
#185 = CALENDAR_DATE ( 2024, 10, 6 ) ;
#186 = DIRECTION ( 'NONE',  ( 7.926992000000000100E-014, -1.000000000000000000, 6.123032000000000300E-017 ) ) ;
#187 = PERSON_AND_ORGANIZATION_ROLE ( 'creator' ) ;
#188 = ORIENTED_EDGE ( 'NONE', *, *, #305, .T. ) ;
#189 = DIRECTION ( 'NONE',  ( 7.926992000000000100E-014, -1.000000000000000000, 6.123032000000000300E-017 ) ) ;
#190 = PERSON_AND_ORGANIZATION_ROLE ( 'classification_officer' ) ;
#191 = AXIS2_PLACEMENT_3D ( 'NONE', #119, #314, #170 ) ;
#192 = DATE_AND_TIME ( #181, #322 ) ;
#193 = CIRCLE ( 'NONE', #59, 3.000000000000000000 ) ;
#194 = ADVANCED_FACE ( 'NONE', ( #282 ), #221, .T. ) ;
#195 = CARTESIAN_POINT ( 'NONE',  ( 7.939238467991477900E-013, -6.123031999370657900E-016, -10.00000000000000000 ) ) ;
#196 = AXIS2_PLACEMENT_3D ( 'NONE', #20, #151, #248 ) ;
#197 = CIRCLE ( 'NONE', #112, 3.000000000000000000 ) ;
#198 = DIRECTION ( 'NONE',  ( -7.926992000000000100E-014, 1.000000000000000000, -6.123032000000000300E-017 ) ) ;
#199 = PERSON_AND_ORGANIZATION ( #43, #104 ) ;
#200 = MECHANICAL_CONTEXT ( 'NONE', #37, 'mechanical' ) ;
#201 = CARTESIAN_POINT ( 'NONE',  ( -7.926991999999999900E-013, 10.00000000000000000, -6.123031999999999300E-016 ) ) ;
#202 = DIRECTION ( 'NONE',  ( 0.0000000000000000000, 0.0000000000000000000, -1.000000000000000000 ) ) ;
#203 = ORIENTED_EDGE ( 'NONE', *, *, #278, .T. ) ;
#204 = VECTOR ( 'NONE', #120, 1000.000000000000000 ) ;
#205 = DIRECTION ( 'NONE',  ( 0.0000000000000000000, 0.0000000000000000000, 1.000000000000000000 ) ) ;
#206 = CARTESIAN_POINT ( 'NONE',  ( 0.0000000000000000000, 0.0000000000000000000, 0.0000000000000000000 ) ) ;
#207 = ORIENTED_EDGE ( 'NONE', *, *, #79, .F. ) ;
#208 = CARTESIAN_POINT ( 'NONE',  ( -9.116040800000000500E-013, 11.50000000000000000, -7.041486799999999600E-016 ) ) ;
#209 = ORIENTED_EDGE ( 'NONE', *, *, #79, .T. ) ;
#210 = DATE_AND_TIME ( #185, #275 ) ;
#211 = CIRCLE ( 'NONE', #18, 3.000000000000000000 ) ;
#212 = AXIS2_PLACEMENT_3D ( 'NONE', #26, #101, #202 ) ;
#213 = ORIENTED_EDGE ( 'NONE', *, *, #246, .F. ) ;
#214 = EDGE_CURVE ( 'NONE', #75, #19, #92, .T. ) ;
#215 = CARTESIAN_POINT ( 'NONE',  ( -7.530642400000000700E-013, 9.500000000000000000, -5.816880399999999500E-016 ) ) ;
#216 = ORIENTED_EDGE ( 'NONE', *, *, #162, .F. ) ;
#217 = ADVANCED_FACE ( 'NONE', ( #83 ), #243, .T. ) ;
#218 = EDGE_LOOP ( 'NONE', ( #153, #64 ) ) ;
#219 = DIRECTION ( 'NONE',  ( 0.0000000000000000000, 0.0000000000000000000, -1.000000000000000000 ) ) ;
#220 = CALENDAR_DATE ( 2024, 10, 6 ) ;
#221 = CYLINDRICAL_SURFACE ( 'NONE', #325, 3.000000000000000000 ) ;
#222 = APPROVAL_ROLE ( '' ) ;
#223 = ORIENTED_EDGE ( 'NONE', *, *, #296, .F. ) ;
#224 = CARTESIAN_POINT ( 'NONE',  ( 0.0000000000000000000, 0.0000000000000000000, 0.0000000000000000000 ) ) ;
#225 = PERSON_AND_ORGANIZATION_ROLE ( 'design_owner' ) ;
#226 = ORIENTED_EDGE ( 'NONE', *, *, #259, .F. ) ;
#227 = EDGE_CURVE ( 'NONE', #163, #132, #300, .T. ) ;
#228 = PERSON_AND_ORGANIZATION ( #43, #104 ) ;
#229 = CARTESIAN_POINT ( 'NONE',  ( -7.530642400000000700E-013, 9.500000000000000000, -5.816880399999999500E-016 ) ) ;
#230 = CIRCLE ( 'NONE', #276, 3.000000000000000000 ) ;
#231 = AXIS2_PLACEMENT_3D ( 'NONE', #239, #186, #260 ) ;
#232 = CARTESIAN_POINT ( 'NONE',  ( 1.585398400000000000E-012, -20.00000000000000000, 1.224606399999999900E-015 ) ) ;
#233 = CC_DESIGN_APPROVAL ( #87, ( #247 ) ) ;
#234 = VERTEX_POINT ( 'NONE', #11 ) ;
#235 = CIRCLE ( 'NONE', #212, 10.00000000000000000 ) ;
#236 = COORDINATED_UNIVERSAL_TIME_OFFSET ( 1, 0, .AHEAD. ) ;
#237 = CARTESIAN_POINT ( 'NONE',  ( -3.765321200000092200E-013, 9.500000000000000000, 2.999999999999999600 ) ) ;
#238 = MANIFOLD_SOLID_BREP ( 'Imported1', #121 ) ;
#239 = CARTESIAN_POINT ( 'NONE',  ( 0.0000000000000000000, 0.0000000000000000000, 0.0000000000000000000 ) ) ;
#240 = CONICAL_SURFACE ( 'NONE', #46, 1.000000000000000000, 0.7853981625000003900 ) ;
#241 = CARTESIAN_POINT ( 'NONE',  ( -7.530642400000000700E-013, 9.500000000000000000, -5.816880399999999500E-016 ) ) ;
#242 = LINE ( 'NONE', #293, #204 ) ;
#243 = PLANE ( 'NONE',  #291 ) ;
#244 = LOCAL_TIME ( 11, 23, 59.00000000000000000, #236 ) ;
#245 = DIRECTION ( 'NONE',  ( -7.926992000000000100E-014, 1.000000000000000000, -6.123032000000000300E-017 ) ) ;
#246 = EDGE_CURVE ( 'NONE', #108, #19, #211, .T. ) ;
#247 = PRODUCT_DEFINITION_FORMATION_WITH_SPECIFIED_SOURCE ( 'ANY', '', #117, .NOT_KNOWN. ) ;
#248 = DIRECTION ( 'NONE',  ( 0.0000000000000000000, 0.0000000000000000000, -1.000000000000000000 ) ) ;
#249 = ORIENTED_EDGE ( 'NONE', *, *, #86, .F. ) ;
#250 = PLANE ( 'NONE',  #54 ) ;
#251 = DIRECTION ( 'NONE',  ( 7.926992000000000100E-014, -1.000000000000000000, 6.123032000000000300E-017 ) ) ;
#252 = DIRECTION ( 'NONE',  ( 0.0000000000000000000, 0.0000000000000000000, 1.000000000000000000 ) ) ;
#253 =( NAMED_UNIT ( * ) SI_UNIT ( $, .STERADIAN. ) SOLID_ANGLE_UNIT ( ) );
#254 = DIRECTION ( 'NONE',  ( 4.853722567974399400E-030, -6.123032000000000300E-017, -1.000000000000000000 ) ) ;
#255 = CIRCLE ( 'NONE', #95, 10.00000000000000000 ) ;
#256 = PERSON_AND_ORGANIZATION ( #43, #104 ) ;
#257 = CIRCLE ( 'NONE', #183, 2.500000000000000000 ) ;
#258 = VERTEX_POINT ( 'NONE', #89 ) ;
#259 = EDGE_CURVE ( 'NONE', #134, #258, #235, .T. ) ;
#260 = DIRECTION ( 'NONE',  ( 4.853722567974400800E-030, -6.123032000000000300E-017, -1.000000000000000000 ) ) ;
#261 = DIRECTION ( 'NONE',  ( 7.926992000000000100E-014, -1.000000000000000000, 6.123032000000000300E-017 ) ) ;
#262 = CARTESIAN_POINT ( 'NONE',  ( -1.000000000000911700, 11.49999999999992000, -7.041486799999999600E-016 ) ) ;
#263 = ORIENTED_EDGE ( 'NONE', *, *, #179, .F. ) ;
#264 = DATE_TIME_ROLE ( 'classification_date' ) ;
#265 = SHAPE_DEFINITION_REPRESENTATION ( #55, #157 ) ;
#266 = CYLINDRICAL_SURFACE ( 'NONE', #103, 3.000000000000000000 ) ;
#267 = APPROVAL_ROLE ( '' ) ;
#268 = ADVANCED_FACE ( 'NONE', ( #16 ), #250, .F. ) ;
#269 = ORIENTED_EDGE ( 'NONE', *, *, #106, .T. ) ;
#270 = DIRECTION ( 'NONE',  ( -7.926992000000000100E-014, 1.000000000000000000, -6.123032000000000300E-017 ) ) ;
#271 = CARTESIAN_POINT ( 'NONE',  ( -9.116040800000000500E-013, 11.50000000000000000, -7.041486799999999600E-016 ) ) ;
#272 = UNCERTAINTY_MEASURE_WITH_UNIT (LENGTH_MEASURE( 1.000000000000000100E-005 ), #177, 'distance_accuracy_value', 'NONE');
#273 = PLANE ( 'NONE',  #191 ) ;
#274 = ORIENTED_EDGE ( 'NONE', *, *, #296, .T. ) ;
#275 = LOCAL_TIME ( 11, 23, 59.00000000000000000, #115 ) ;
#276 = AXIS2_PLACEMENT_3D ( 'NONE', #224, #245, #171 ) ;
#277 = ORIENTED_EDGE ( 'NONE', *, *, #227, .F. ) ;
#278 = EDGE_CURVE ( 'NONE', #132, #163, #7, .T. ) ;
#279 = CC_DESIGN_PERSON_AND_ORGANIZATION_ASSIGNMENT ( #303, #287, ( #247 ) ) ;
#280 = ORIENTED_EDGE ( 'NONE', *, *, #179, .T. ) ;
#281 = DATE_AND_TIME ( #220, #51 ) ;
#282 = FACE_OUTER_BOUND ( 'NONE', #60, .T. ) ;
#283 = LINE ( 'NONE', #174, #84 ) ;
#284 = DIRECTION ( 'NONE',  ( -7.926992000000000100E-014, 1.000000000000000000, -6.123032000000000300E-017 ) ) ;
#285 = VERTEX_POINT ( 'NONE', #97 ) ;
#286 = CARTESIAN_POINT ( 'NONE',  ( 1.705527926799147400E-012, -21.50000000000000000, -9.999999999999998200 ) ) ;
#287 = PERSON_AND_ORGANIZATION_ROLE ( 'creator' ) ;
#288 = CIRCLE ( 'NONE', #196, 3.000000000000000000 ) ;
#289 = CARTESIAN_POINT ( 'NONE',  ( 1.704303280000000000E-012, -21.50000000000000000, 3.000000000000001300 ) ) ;
#290 = APPROVAL_STATUS ( 'not_yet_approved' ) ;
#291 = AXIS2_PLACEMENT_3D ( 'NONE', #138, #309, #40 ) ;
#292 = ADVANCED_FACE ( 'NONE', ( #178 ), #102, .T. ) ;
#293 = CARTESIAN_POINT ( 'NONE',  ( 1.704670674039744300E-012, -21.50000000000000000, -2.999999999999998700 ) ) ;
#294 = CARTESIAN_POINT ( 'NONE',  ( 7.926992000000001900E-013, -20.00000000000000000, 10.00000000000000200 ) ) ;
#295 = DIRECTION ( 'NONE',  ( 4.853722567974400800E-030, -6.123032000000000300E-017, -1.000000000000000000 ) ) ;
#296 = EDGE_CURVE ( 'NONE', #234, #108, #193, .T. ) ;
#297 = DIRECTION ( 'NONE',  ( 4.853722567974400100E-030, -6.123032000000000300E-017, -1.000000000000000000 ) ) ;
#298 = LOCAL_TIME ( 11, 23, 59.00000000000000000, #308 ) ;
#299 = DIRECTION ( 'NONE',  ( 7.926992000000000100E-014, -1.000000000000000000, 6.123032000000000300E-017 ) ) ;
#300 = CIRCLE ( 'NONE', #231, 10.00000000000000000 ) ;
#301 = VERTEX_POINT ( 'NONE', #320 ) ;
#302 = ORIENTED_EDGE ( 'NONE', *, *, #22, .T. ) ;
#303 = PERSON_AND_ORGANIZATION ( #43, #104 ) ;
#304 = FACE_OUTER_BOUND ( 'NONE', #99, .T. ) ;
#305 = EDGE_CURVE ( 'NONE', #8, #173, #257, .T. ) ;
#306 = CC_DESIGN_APPROVAL ( #113, ( #149 ) ) ;
#307 = ORIENTED_EDGE ( 'NONE', *, *, #86, .T. ) ;
#308 = COORDINATED_UNIVERSAL_TIME_OFFSET ( 1, 0, .AHEAD. ) ;
#309 = DIRECTION ( 'NONE',  ( -7.926992000000000100E-014, 1.000000000000000000, -6.123032000000000300E-017 ) ) ;
#310 = DIRECTION ( 'NONE',  ( 1.000000000000000000, 0.0000000000000000000, 0.0000000000000000000 ) ) ;
#311 = ORIENTED_EDGE ( 'NONE', *, *, #124, .T. ) ;
#312 = APPROVAL_DATE_TIME ( #61, #113 ) ;
#313 = APPROVAL_STATUS ( 'not_yet_approved' ) ;
#314 = DIRECTION ( 'NONE',  ( -7.926992000000000100E-014, 1.000000000000000000, -6.123032000000000300E-017 ) ) ;
#315 = DIRECTION ( 'NONE',  ( 7.926992000000000100E-014, -1.000000000000000000, 6.123032000000000300E-017 ) ) ;
#316 = EDGE_LOOP ( 'NONE', ( #88, #5 ) ) ;
#317 = DIRECTION ( 'NONE',  ( 7.926992000000000100E-014, -1.000000000000000000, 6.123032000000000300E-017 ) ) ;
#318 = PERSON_AND_ORGANIZATION ( #43, #104 ) ;
#319 = DIRECTION ( 'NONE',  ( 0.7071067805520121500, -0.7071067818210828900, -4.329923102075576300E-017 ) ) ;
#320 = CARTESIAN_POINT ( 'NONE',  ( -2.999999996410961200, 9.499999999999762000, -5.816880399999999500E-016 ) ) ;
#321 = EDGE_LOOP ( 'NONE', ( #10, #25, #81, #155, #213 ) ) ;
#322 = LOCAL_TIME ( 11, 23, 59.00000000000000000, #156 ) ;
#323 = DIRECTION ( 'NONE',  ( -7.926992000000000100E-014, 1.000000000000000000, -6.123032000000000300E-017 ) ) ;
#324 = CIRCLE ( 'NONE', #41, 3.000000000000000000 ) ;
#325 = AXIS2_PLACEMENT_3D ( 'NONE', #91, #284, #15 ) ;
ENDSEC;
END-ISO-10303-21;
