ISO-10303-21;
HEADER;
FILE_DESCRIPTION (( 'STEP AP214' ),
    '1' );
FILE_NAME ('093WU201S.STEP',
    '2015-04-23T08:48:32',
    ( 'Admin' ),
    ( 'Hewlett-Packard Company' ),
    'SwSTEP 2.0',
    'SolidWorks 2014',
    '' );
FILE_SCHEMA (( 'AUTOMOTIVE_DESIGN' ));
ENDSEC;

DATA;
#1 = EDGE_LOOP ( 'NONE', ( #236, #259, #253, #313 ) ) ;
#2 = FACE_OUTER_BOUND ( 'NONE', #1, .T. ) ;
#3 = ORIENTED_EDGE ( 'NONE', *, *, #100, .F. ) ;
#4 = VECTOR ( 'NONE', #179, 1000.000000000000000 ) ;
#5 = ADVANCED_FACE ( 'NONE', ( #2 ), #260, .F. ) ;
#6 = FACE_OUTER_BOUND ( 'NONE', #157, .T. ) ;
#7 = EDGE_CURVE ( 'NONE', #285, #285, #266, .T. ) ;
#8 = ORIENTED_EDGE ( 'NONE', *, *, #141, .F. ) ;
#9 = CARTESIAN_POINT ( 'NONE',  ( 20.00000000000000000, 3.000000000000000000, 10.00000000000000000 ) ) ;
#10 = PLANE ( 'NONE',  #281 ) ;
#11 = PRODUCT_DEFINITION ( 'UNKNOWN', '', #210, #19 ) ;
#12 = DIRECTION ( 'NONE',  ( -0.0000000000000000000, 1.000000000000000000, -0.0000000000000000000 ) ) ;
#13 = EDGE_LOOP ( 'NONE', ( #225 ) ) ;
#14 = VERTEX_POINT ( 'NONE', #317 ) ;
#15 = DIRECTION ( 'NONE',  ( -1.275531967630005200E-016, 1.000000000000000000, -0.0000000000000000000 ) ) ;
#16 = FACE_OUTER_BOUND ( 'NONE', #95, .T. ) ;
#17 = EDGE_LOOP ( 'NONE', ( #332 ) ) ;
#18 = VERTEX_POINT ( 'NONE', #148 ) ;
#19 = PRODUCT_DEFINITION_CONTEXT ( 'detailed design', #305, 'design' ) ;
#20 =( LENGTH_UNIT ( ) NAMED_UNIT ( * ) SI_UNIT ( .MILLI., .METRE. ) );
#21 = DIRECTION ( 'NONE',  ( -0.0000000000000000000, -0.0000000000000000000, -1.000000000000000000 ) ) ;
#22 = AXIS2_PLACEMENT_3D ( 'NONE', #282, #109, #308 ) ;
#23 = ORIENTED_EDGE ( 'NONE', *, *, #100, .T. ) ;
#24 = AXIS2_PLACEMENT_3D ( 'NONE', #306, #74, #280 ) ;
#25 = AXIS2_PLACEMENT_3D ( 'NONE', #365, #354, #202 ) ;
#26 = DIRECTION ( 'NONE',  ( 1.000000000000000000, 0.0000000000000000000, -0.0000000000000000000 ) ) ;
#27 = DIRECTION ( 'NONE',  ( 1.275531967630005200E-016, -1.000000000000000000, 0.0000000000000000000 ) ) ;
#28 = DIRECTION ( 'NONE',  ( 0.0000000000000000000, 0.0000000000000000000, -1.000000000000000000 ) ) ;
#29 = PLANE ( 'NONE',  #196 ) ;
#30 = AXIS2_PLACEMENT_3D ( 'NONE', #93, #155, #346 ) ;
#31 = ORIENTED_EDGE ( 'NONE', *, *, #87, .F. ) ;
#32 = VECTOR ( 'NONE', #372, 1000.000000000000000 ) ;
#33 = CLOSED_SHELL ( 'NONE', ( #63, #5, #248, #159, #326, #40, #97, #273, #218, #130, #153, #348 ) ) ;
#34 = CARTESIAN_POINT ( 'NONE',  ( 0.0000000000000000000, 20.00000000000000000, 10.00000000000000000 ) ) ;
#35 = PRODUCT_DEFINITION_SHAPE ( 'NONE', 'NONE',  #11 ) ;
#36 = VERTEX_POINT ( 'NONE', #51 ) ;
#37 = CIRCLE ( 'NONE', #373, 2.749999999999999100 ) ;
#38 = VECTOR ( 'NONE', #132, 1000.000000000000000 ) ;
#39 = AXIS2_PLACEMENT_3D ( 'NONE', #312, #147, #340 ) ;
#40 = ADVANCED_FACE ( 'NONE', ( #250, #6 ), #240, .F. ) ;
#41 = DIRECTION ( 'NONE',  ( -0.0000000000000000000, 1.000000000000000000, -0.0000000000000000000 ) ) ;
#42 = AXIS2_PLACEMENT_3D ( 'NONE', #56, #268, #27 ) ;
#43 = ORIENTED_EDGE ( 'NONE', *, *, #141, .T. ) ;
#44 = VERTEX_POINT ( 'NONE', #175 ) ;
#45 = SURFACE_SIDE_STYLE ('',( #294 ) ) ;
#46 = ORIENTED_EDGE ( 'NONE', *, *, #82, .F. ) ;
#47 = LINE ( 'NONE', #99, #38 ) ;
#48 =( NAMED_UNIT ( * ) SI_UNIT ( $, .STERADIAN. ) SOLID_ANGLE_UNIT ( ) );
#49 = DIRECTION ( 'NONE',  ( 1.000000000000000000, 0.0000000000000000000, 0.0000000000000000000 ) ) ;
#50 = CARTESIAN_POINT ( 'NONE',  ( 3.000000000000000000, 20.00000000000000000, 10.00000000000000000 ) ) ;
#51 = CARTESIAN_POINT ( 'NONE',  ( 3.000000000000002200, 3.000000000000000000, 10.00000000000000000 ) ) ;
#52 = CARTESIAN_POINT ( 'NONE',  ( 3.000000000000000000, 20.00000000000000000, 10.00000000000000000 ) ) ;
#53 = FACE_BOUND ( 'NONE', #288, .T. ) ;
#54 = ORIENTED_EDGE ( 'NONE', *, *, #124, .F. ) ;
#55 = CARTESIAN_POINT ( 'NONE',  ( 0.0000000000000000000, 20.00000000000000000, 10.00000000000000000 ) ) ;
#56 = CARTESIAN_POINT ( 'NONE',  ( 3.000000000000000000, 20.00000000000000000, 10.00000000000000000 ) ) ;
#57 = DIRECTION ( 'NONE',  ( -0.0000000000000000000, 1.000000000000000000, -0.0000000000000000000 ) ) ;
#58 = AXIS2_PLACEMENT_3D ( 'NONE', #111, #80, #284 ) ;
#59 = VECTOR ( 'NONE', #21, 1000.000000000000000 ) ;
#60 = AXIS2_PLACEMENT_3D ( 'NONE', #342, #188, #371 ) ;
#61 = ORIENTED_EDGE ( 'NONE', *, *, #146, .F. ) ;
#62 = ORIENTED_EDGE ( 'NONE', *, *, #146, .T. ) ;
#63 = ADVANCED_FACE ( 'NONE', ( #241, #307 ), #126, .F. ) ;
#64 = VECTOR ( 'NONE', #15, 1000.000000000000000 ) ;
#65 = FACE_OUTER_BOUND ( 'NONE', #252, .T. ) ;
#66 = PRODUCT_RELATED_PRODUCT_CATEGORY ( 'part', '', ( #203 ) ) ;
#67 =( LENGTH_UNIT ( ) NAMED_UNIT ( * ) SI_UNIT ( .MILLI., .METRE. ) );
#68 = DIRECTION ( 'NONE',  ( -1.275531967630005200E-016, 1.000000000000000000, -0.0000000000000000000 ) ) ;
#69 = VERTEX_POINT ( 'NONE', #292 ) ;
#70 = EDGE_CURVE ( 'NONE', #101, #245, #162, .T. ) ;
#71 =( NAMED_UNIT ( * ) PLANE_ANGLE_UNIT ( ) SI_UNIT ( $, .RADIAN. ) );
#72 = ORIENTED_EDGE ( 'NONE', *, *, #143, .F. ) ;
#73 = ORIENTED_EDGE ( 'NONE', *, *, #7, .F. ) ;
#74 = DIRECTION ( 'NONE',  ( 0.0000000000000000000, 0.0000000000000000000, 1.000000000000000000 ) ) ;
#75 = FACE_OUTER_BOUND ( 'NONE', #246, .T. ) ;
#76 = EDGE_CURVE ( 'NONE', #275, #275, #89, .T. ) ;
#77 = LINE ( 'NONE', #194, #64 ) ;
#78 = EDGE_CURVE ( 'NONE', #212, #212, #232, .T. ) ;
#79 = DIRECTION ( 'NONE',  ( -0.0000000000000000000, -0.0000000000000000000, -1.000000000000000000 ) ) ;
#80 = DIRECTION ( 'NONE',  ( 0.0000000000000000000, -1.000000000000000000, 0.0000000000000000000 ) ) ;
#81 = CARTESIAN_POINT ( 'NONE',  ( 0.0000000000000000000, 20.00000000000000000, 10.00000000000000000 ) ) ;
#82 = EDGE_CURVE ( 'NONE', #36, #287, #77, .T. ) ;
#83 = ORIENTED_EDGE ( 'NONE', *, *, #96, .T. ) ;
#84 = ORIENTED_EDGE ( 'NONE', *, *, #87, .T. ) ;
#85 = CIRCLE ( 'NONE', #329, 5.200000000000000200 ) ;
#86 = CARTESIAN_POINT ( 'NONE',  ( 0.0000000000000000000, 0.0000000000000000000, 10.00000000000000000 ) ) ;
#87 = EDGE_CURVE ( 'NONE', #18, #315, #296, .T. ) ;
#88 = CARTESIAN_POINT ( 'NONE',  ( 10.00000000000000000, 3.000000000000000000, 0.0000000000000000000 ) ) ;
#89 = CIRCLE ( 'NONE', #39, 2.749999999999999100 ) ;
#90 = ORIENTED_EDGE ( 'NONE', *, *, #70, .F. ) ;
#91 = ORIENTED_EDGE ( 'NONE', *, *, #120, .F. ) ;
#92 = FACE_OUTER_BOUND ( 'NONE', #271, .T. ) ;
#93 = CARTESIAN_POINT ( 'NONE',  ( 0.0000000000000000000, 0.0000000000000000000, 10.00000000000000000 ) ) ;
#94 = EDGE_CURVE ( 'NONE', #122, #122, #360, .T. ) ;
#95 = EDGE_LOOP ( 'NONE', ( #62, #192, #72, #190 ) ) ;
#96 = EDGE_CURVE ( 'NONE', #69, #36, #220, .T. ) ;
#97 = ADVANCED_FACE ( 'NONE', ( #144 ), #142, .F. ) ;
#98 =( GEOMETRIC_REPRESENTATION_CONTEXT ( 3 ) GLOBAL_UNCERTAINTY_ASSIGNED_CONTEXT ( ( #302 ) ) GLOBAL_UNIT_ASSIGNED_CONTEXT ( ( #20, #226, #48 ) ) REPRESENTATION_CONTEXT ( 'NONE', 'WORKASPACE' ) );
#99 = CARTESIAN_POINT ( 'NONE',  ( 0.0000000000000000000, 20.00000000000000000, -10.00000000000000000 ) ) ;
#100 = EDGE_CURVE ( 'NONE', #36, #18, #177, .T. ) ;
#101 = VERTEX_POINT ( 'NONE', #261 ) ;
#102 =( NAMED_UNIT ( * ) SI_UNIT ( $, .STERADIAN. ) SOLID_ANGLE_UNIT ( ) );
#103 = FACE_OUTER_BOUND ( 'NONE', #227, .T. ) ;
#104 = CARTESIAN_POINT ( 'NONE',  ( 3.000000000000002200, 3.000000000000000000, 10.00000000000000000 ) ) ;
#105 = ORIENTED_EDGE ( 'NONE', *, *, #129, .F. ) ;
#106 = VERTEX_POINT ( 'NONE', #81 ) ;
#107 = PRODUCT_CONTEXT ( 'NONE', #333, 'mechanical' ) ;
#108 = CARTESIAN_POINT ( 'NONE',  ( 10.00000000000000000, 0.0000000000000000000, 2.749999999999999100 ) ) ;
#109 = DIRECTION ( 'NONE',  ( -1.000000000000000000, -2.220446049250313100E-016, -0.0000000000000000000 ) ) ;
#110 = PLANE ( 'NONE',  #215 ) ;
#111 = CARTESIAN_POINT ( 'NONE',  ( 0.0000000000000000000, 20.00000000000000000, 10.00000000000000000 ) ) ;
#112 = DIRECTION ( 'NONE',  ( -0.0000000000000000000, -0.0000000000000000000, -1.000000000000000000 ) ) ;
#113 = EDGE_LOOP ( 'NONE', ( #121 ) ) ;
#114 = FACE_OUTER_BOUND ( 'NONE', #228, .T. ) ;
#115 = MECHANICAL_DESIGN_GEOMETRIC_PRESENTATION_REPRESENTATION (  '', ( #176 ), #98 ) ;
#116 = EDGE_CURVE ( 'NONE', #287, #315, #173, .T. ) ;
#117 = FACE_OUTER_BOUND ( 'NONE', #351, .T. ) ;
#118 = EDGE_CURVE ( 'NONE', #125, #18, #247, .T. ) ;
#119 = CARTESIAN_POINT ( 'NONE',  ( 3.000000000000002200, 3.000000000000000000, 10.00000000000000000 ) ) ;
#120 = EDGE_CURVE ( 'NONE', #44, #44, #85, .T. ) ;
#121 = ORIENTED_EDGE ( 'NONE', *, *, #94, .F. ) ;
#122 = VERTEX_POINT ( 'NONE', #334 ) ;
#123 = MANIFOLD_SOLID_BREP ( 'Spiegeln2', #33 ) ;
#124 = EDGE_CURVE ( 'NONE', #14, #69, #158, .T. ) ;
#125 = VERTEX_POINT ( 'NONE', #338 ) ;
#126 = PLANE ( 'NONE',  #30 ) ;
#127 = UNCERTAINTY_MEASURE_WITH_UNIT (LENGTH_MEASURE( 1.000000000000000100E-005 ), #256, 'distance_accuracy_value', 'NONE');
#128 = LINE ( 'NONE', #161, #137 ) ;
#129 = EDGE_CURVE ( 'NONE', #69, #125, #347, .T. ) ;
#130 = ADVANCED_FACE ( 'NONE', ( #53, #75 ), #204, .F. ) ;
#131 = DIRECTION ( 'NONE',  ( -0.0000000000000000000, 1.000000000000000000, -0.0000000000000000000 ) ) ;
#132 = DIRECTION ( 'NONE',  ( 0.0000000000000000000, -1.000000000000000000, 0.0000000000000000000 ) ) ;
#133 = SURFACE_STYLE_FILL_AREA ( #172 ) ;
#134 = FILL_AREA_STYLE_COLOUR ( '', #304 ) ;
#135 = PRESENTATION_LAYER_ASSIGNMENT (  '', '', ( #176 ) ) ;
#136 = DIRECTION ( 'NONE',  ( -1.000000000000000000, 0.0000000000000000000, 0.0000000000000000000 ) ) ;
#137 = VECTOR ( 'NONE', #274, 1000.000000000000000 ) ;
#138 = DIRECTION ( 'NONE',  ( 0.0000000000000000000, -0.0000000000000000000, -1.000000000000000000 ) ) ;
#139 = APPLICATION_PROTOCOL_DEFINITION ( 'draft international standard', 'automotive_design', 1998, #305 ) ;
#140 = CARTESIAN_POINT ( 'NONE',  ( 10.00000000000000000, 0.5499999999999974900, 2.749999999999999100 ) ) ;
#141 = EDGE_CURVE ( 'NONE', #245, #125, #213, .T. ) ;
#142 = PLANE ( 'NONE',  #231 ) ;
#143 = EDGE_CURVE ( 'NONE', #106, #170, #128, .T. ) ;
#144 = FACE_OUTER_BOUND ( 'NONE', #181, .T. ) ;
#145 = CARTESIAN_POINT ( 'NONE',  ( 0.0000000000000000000, 0.0000000000000000000, -10.00000000000000000 ) ) ;
#146 = EDGE_CURVE ( 'NONE', #186, #101, #47, .T. ) ;
#147 = DIRECTION ( 'NONE',  ( -1.000000000000000000, -2.220446049250313100E-016, -0.0000000000000000000 ) ) ;
#148 = CARTESIAN_POINT ( 'NONE',  ( 3.000000000000002200, 3.000000000000000000, -10.00000000000000000 ) ) ;
#149 = ORIENTED_EDGE ( 'NONE', *, *, #96, .F. ) ;
#150 = CARTESIAN_POINT ( 'NONE',  ( -2.220446049250313100E-015, 10.00000000000000000, 0.0000000000000000000 ) ) ;
#151 = VECTOR ( 'NONE', #68, 1000.000000000000000 ) ;
#152 = FACE_BOUND ( 'NONE', #171, .T. ) ;
#153 = ADVANCED_FACE ( 'NONE', ( #117, #370 ), #264, .F. ) ;
#154 =( GEOMETRIC_REPRESENTATION_CONTEXT ( 3 ) GLOBAL_UNCERTAINTY_ASSIGNED_CONTEXT ( ( #168 ) ) GLOBAL_UNIT_ASSIGNED_CONTEXT ( ( #67, #276, #102 ) ) REPRESENTATION_CONTEXT ( 'NONE', 'WORKASPACE' ) );
#155 = DIRECTION ( 'NONE',  ( 0.0000000000000000000, 1.000000000000000000, 0.0000000000000000000 ) ) ;
#156 = EDGE_LOOP ( 'NONE', ( #369, #31, #265, #8, #90, #61 ) ) ;
#157 = EDGE_LOOP ( 'NONE', ( #84, #180, #46, #23 ) ) ;
#158 = LINE ( 'NONE', #165, #217 ) ;
#159 = ADVANCED_FACE ( 'NONE', ( #114 ), #10, .F. ) ;
#160 = EDGE_CURVE ( 'NONE', #339, #339, #37, .T. ) ;
#161 = CARTESIAN_POINT ( 'NONE',  ( 0.0000000000000000000, 20.00000000000000000, 10.00000000000000000 ) ) ;
#162 = LINE ( 'NONE', #323, #374 ) ;
#163 = AXIS2_PLACEMENT_3D ( 'NONE', #201, #131, #327 ) ;
#164 = CARTESIAN_POINT ( 'NONE',  ( 2.999999999999997800, 10.00000000000000000, 0.0000000000000000000 ) ) ;
#165 = CARTESIAN_POINT ( 'NONE',  ( 20.00000000000000000, 3.000000000000000000, 10.00000000000000000 ) ) ;
#166 = EDGE_CURVE ( 'NONE', #106, #186, #331, .T. ) ;
#167 = DIRECTION ( 'NONE',  ( -0.0000000000000000000, 1.000000000000000000, -0.0000000000000000000 ) ) ;
#168 = UNCERTAINTY_MEASURE_WITH_UNIT (LENGTH_MEASURE( 1.000000000000000100E-005 ), #67, 'distance_accuracy_value', 'NONE');
#169 = EDGE_LOOP ( 'NONE', ( #195 ) ) ;
#170 = VERTEX_POINT ( 'NONE', #86 ) ;
#171 = EDGE_LOOP ( 'NONE', ( #91 ) ) ;
#172 = FILL_AREA_STYLE ('',( #207 ) ) ;
#173 = LINE ( 'NONE', #52, #4 ) ;
#174 = DIRECTION ( 'NONE',  ( 1.000000000000000000, 2.220446049250313100E-016, 0.0000000000000000000 ) ) ;
#175 = CARTESIAN_POINT ( 'NONE',  ( 10.00000000000000000, 3.000000000000001800, 5.200000000000000200 ) ) ;
#176 = STYLED_ITEM ( 'NONE', ( #184 ), #324 ) ;
#177 = LINE ( 'NONE', #286, #316 ) ;
#178 = DIRECTION ( 'NONE',  ( -1.000000000000000000, 0.0000000000000000000, -0.0000000000000000000 ) ) ;
#179 = DIRECTION ( 'NONE',  ( -0.0000000000000000000, -0.0000000000000000000, -1.000000000000000000 ) ) ;
#180 = ORIENTED_EDGE ( 'NONE', *, *, #116, .F. ) ;
#181 = EDGE_LOOP ( 'NONE', ( #320, #357, #185, #237, #83, #303 ) ) ;
#182 = VECTOR ( 'NONE', #269, 1000.000000000000000 ) ;
#183 = CARTESIAN_POINT ( 'NONE',  ( 3.000000000000000000, 20.00000000000000000, -10.00000000000000000 ) ) ;
#184 = PRESENTATION_STYLE_ASSIGNMENT (( #205 ) ) ;
#185 = ORIENTED_EDGE ( 'NONE', *, *, #376, .T. ) ;
#186 = VERTEX_POINT ( 'NONE', #267 ) ;
#187 = EDGE_CURVE ( 'NONE', #287, #106, #254, .T. ) ;
#188 = DIRECTION ( 'NONE',  ( -0.0000000000000000000, -1.000000000000000000, -0.0000000000000000000 ) ) ;
#189 = DIRECTION ( 'NONE',  ( 0.0000000000000000000, 0.0000000000000000000, 1.000000000000000000 ) ) ;
#190 = ORIENTED_EDGE ( 'NONE', *, *, #166, .T. ) ;
#191 =( GEOMETRIC_REPRESENTATION_CONTEXT ( 3 ) GLOBAL_UNCERTAINTY_ASSIGNED_CONTEXT ( ( #127 ) ) GLOBAL_UNIT_ASSIGNED_CONTEXT ( ( #256, #71, #279 ) ) REPRESENTATION_CONTEXT ( 'NONE', 'WORKASPACE' ) );
#192 = ORIENTED_EDGE ( 'NONE', *, *, #366, .F. ) ;
#193 = LINE ( 'NONE', #283, #322 ) ;
#194 = CARTESIAN_POINT ( 'NONE',  ( 3.000000000000000000, 20.00000000000000000, 10.00000000000000000 ) ) ;
#195 = ORIENTED_EDGE ( 'NONE', *, *, #76, .T. ) ;
#196 = AXIS2_PLACEMENT_3D ( 'NONE', #119, #301, #138 ) ;
#197 = ORIENTED_EDGE ( 'NONE', *, *, #270, .F. ) ;
#198 = CARTESIAN_POINT ( 'NONE',  ( 10.00000000000000000, 3.000000000000001800, 0.0000000000000000000 ) ) ;
#199 = EDGE_LOOP ( 'NONE', ( #73 ) ) ;
#200 = AXIS2_PLACEMENT_3D ( 'NONE', #206, #174, #356 ) ;
#201 = CARTESIAN_POINT ( 'NONE',  ( 10.00000000000000000, 3.000000000000001800, 0.0000000000000000000 ) ) ;
#202 = DIRECTION ( 'NONE',  ( 0.0000000000000000000, 0.0000000000000000000, 1.000000000000000000 ) ) ;
#203 = PRODUCT ( '093WU201S', '093WU201S', '', ( #107 ) ) ;
#204 = CONICAL_SURFACE ( 'NONE', #163, 5.200000000000000200, 0.7853981633974476100 ) ;
#205 = SURFACE_STYLE_USAGE ( .BOTH. , #355 ) ;
#206 = CARTESIAN_POINT ( 'NONE',  ( 2.999999999999999600, 10.00000000000000000, 0.0000000000000000000 ) ) ;
#207 = FILL_AREA_STYLE_COLOUR ( '', #255 ) ;
#208 = CARTESIAN_POINT ( 'NONE',  ( 0.0000000000000000000, 20.00000000000000000, 10.00000000000000000 ) ) ;
#209 = CARTESIAN_POINT ( 'NONE',  ( 0.0000000000000000000, 0.0000000000000000000, 10.00000000000000000 ) ) ;
#210 = PRODUCT_DEFINITION_FORMATION_WITH_SPECIFIED_SOURCE ( 'ANY', '', #203, .NOT_KNOWN. ) ;
#211 = CARTESIAN_POINT ( 'NONE',  ( 3.000000000000000000, 20.00000000000000000, -10.00000000000000000 ) ) ;
#212 = VERTEX_POINT ( 'NONE', #140 ) ;
#213 = LINE ( 'NONE', #219, #341 ) ;
#214 = DIRECTION ( 'NONE',  ( 1.000000000000000000, 0.0000000000000000000, 0.0000000000000000000 ) ) ;
#215 = AXIS2_PLACEMENT_3D ( 'NONE', #145, #337, #178 ) ;
#216 = CONICAL_SURFACE ( 'NONE', #200, 5.200000000000000200, 0.7853981633974476100 ) ;
#217 = VECTOR ( 'NONE', #167, 1000.000000000000000 ) ;
#218 = ADVANCED_FACE ( 'NONE', ( #92, #103 ), #244, .F. ) ;
#219 = CARTESIAN_POINT ( 'NONE',  ( 20.00000000000000000, 3.000000000000000000, -10.00000000000000000 ) ) ;
#220 = LINE ( 'NONE', #104, #291 ) ;
#221 = FACE_BOUND ( 'NONE', #169, .T. ) ;
#222 = DIRECTION ( 'NONE',  ( 0.0000000000000000000, 0.0000000000000000000, 1.000000000000000000 ) ) ;
#223 = DIRECTION ( 'NONE',  ( -0.0000000000000000000, -0.0000000000000000000, -1.000000000000000000 ) ) ;
#224 = ORIENTED_EDGE ( 'NONE', *, *, #70, .T. ) ;
#225 = ORIENTED_EDGE ( 'NONE', *, *, #76, .F. ) ;
#226 =( NAMED_UNIT ( * ) PLANE_ANGLE_UNIT ( ) SI_UNIT ( $, .RADIAN. ) );
#227 = EDGE_LOOP ( 'NONE', ( #263 ) ) ;
#228 = EDGE_LOOP ( 'NONE', ( #43, #105, #54, #330 ) ) ;
#229 = CARTESIAN_POINT ( 'NONE',  ( 0.0000000000000000000, 0.0000000000000000000, 10.00000000000000000 ) ) ;
#230 = PRESENTATION_STYLE_ASSIGNMENT (( #251 ) ) ;
#231 = AXIS2_PLACEMENT_3D ( 'NONE', #209, #28, #235 ) ;
#232 = CIRCLE ( 'NONE', #25, 2.749999999999999100 ) ;
#233 = DIRECTION ( 'NONE',  ( -0.0000000000000000000, 0.0000000000000000000, -1.000000000000000000 ) ) ;
#234 = VECTOR ( 'NONE', #49, 1000.000000000000000 ) ;
#235 = DIRECTION ( 'NONE',  ( -1.000000000000000000, 0.0000000000000000000, -0.0000000000000000000 ) ) ;
#236 = ORIENTED_EDGE ( 'NONE', *, *, #295, .T. ) ;
#237 = ORIENTED_EDGE ( 'NONE', *, *, #124, .T. ) ;
#238 = VECTOR ( 'NONE', #310, 1000.000000000000000 ) ;
#239 = DIRECTION ( 'NONE',  ( 0.0000000000000000000, 0.0000000000000000000, 1.000000000000000000 ) ) ;
#240 = PLANE ( 'NONE',  #42 ) ;
#241 = FACE_OUTER_BOUND ( 'NONE', #368, .T. ) ;
#242 = AXIS2_PLACEMENT_3D ( 'NONE', #208, #26, #233 ) ;
#243 = ORIENTED_EDGE ( 'NONE', *, *, #78, .F. ) ;
#244 = CYLINDRICAL_SURFACE ( 'NONE', #249, 2.749999999999999100 ) ;
#245 = VERTEX_POINT ( 'NONE', #319 ) ;
#246 = EDGE_LOOP ( 'NONE', ( #364 ) ) ;
#247 = LINE ( 'NONE', #363, #238 ) ;
#248 = ADVANCED_FACE ( 'NONE', ( #314, #16 ), #359, .F. ) ;
#249 = AXIS2_PLACEMENT_3D ( 'NONE', #88, #57, #318 ) ;
#250 = FACE_BOUND ( 'NONE', #17, .T. ) ;
#251 = SURFACE_STYLE_USAGE ( .BOTH. , #45 ) ;
#252 = EDGE_LOOP ( 'NONE', ( #325, #3, #149, #367 ) ) ;
#253 = ORIENTED_EDGE ( 'NONE', *, *, #187, .F. ) ;
#254 = LINE ( 'NONE', #34, #182 ) ;
#255 = COLOUR_RGB ( '',0.7764705882352941300, 0.7568627450980391900, 0.7372549019607843600 ) ;
#256 =( LENGTH_UNIT ( ) NAMED_UNIT ( * ) SI_UNIT ( .MILLI., .METRE. ) );
#257 = CARTESIAN_POINT ( 'NONE',  ( 0.0000000000000000000, 0.0000000000000000000, 10.00000000000000000 ) ) ;
#258 = ORIENTED_EDGE ( 'NONE', *, *, #7, .T. ) ;
#259 = ORIENTED_EDGE ( 'NONE', *, *, #166, .F. ) ;
#260 = PLANE ( 'NONE',  #58 ) ;
#261 = CARTESIAN_POINT ( 'NONE',  ( 0.0000000000000000000, 0.0000000000000000000, -10.00000000000000000 ) ) ;
#262 = CARTESIAN_POINT ( 'NONE',  ( 0.5499999999999953800, 10.00000000000000000, 2.749999999999999100 ) ) ;
#263 = ORIENTED_EDGE ( 'NONE', *, *, #78, .T. ) ;
#264 = CYLINDRICAL_SURFACE ( 'NONE', #335, 2.749999999999999100 ) ;
#265 = ORIENTED_EDGE ( 'NONE', *, *, #118, .F. ) ;
#266 = CIRCLE ( 'NONE', #60, 2.749999999999999100 ) ;
#267 = CARTESIAN_POINT ( 'NONE',  ( 0.0000000000000000000, 20.00000000000000000, -10.00000000000000000 ) ) ;
#268 = DIRECTION ( 'NONE',  ( -1.000000000000000000, -1.275531967630005200E-016, 0.0000000000000000000 ) ) ;
#269 = DIRECTION ( 'NONE',  ( -1.000000000000000000, -0.0000000000000000000, -0.0000000000000000000 ) ) ;
#270 = EDGE_CURVE ( 'NONE', #14, #245, #193, .T. ) ;
#271 = EDGE_LOOP ( 'NONE', ( #258 ) ) ;
#272 = FACE_OUTER_BOUND ( 'NONE', #156, .T. ) ;
#273 = ADVANCED_FACE ( 'NONE', ( #272 ), #110, .T. ) ;
#274 = DIRECTION ( 'NONE',  ( 0.0000000000000000000, -1.000000000000000000, 0.0000000000000000000 ) ) ;
#275 = VERTEX_POINT ( 'NONE', #262 ) ;
#276 =( NAMED_UNIT ( * ) PLANE_ANGLE_UNIT ( ) SI_UNIT ( $, .RADIAN. ) );
#277 = VECTOR ( 'NONE', #223, 1000.000000000000000 ) ;
#278 = ORIENTED_EDGE ( 'NONE', *, *, #366, .T. ) ;
#279 =( NAMED_UNIT ( * ) SI_UNIT ( $, .STERADIAN. ) SOLID_ANGLE_UNIT ( ) );
#280 = DIRECTION ( 'NONE',  ( 1.000000000000000000, 0.0000000000000000000, 0.0000000000000000000 ) ) ;
#281 = AXIS2_PLACEMENT_3D ( 'NONE', #9, #136, #239 ) ;
#282 = CARTESIAN_POINT ( 'NONE',  ( 2.999999999999999600, 10.00000000000000000, 0.0000000000000000000 ) ) ;
#283 = CARTESIAN_POINT ( 'NONE',  ( 20.00000000000000000, 0.0000000000000000000, 10.00000000000000000 ) ) ;
#284 = DIRECTION ( 'NONE',  ( 0.0000000000000000000, -0.0000000000000000000, -1.000000000000000000 ) ) ;
#285 = VERTEX_POINT ( 'NONE', #108 ) ;
#286 = CARTESIAN_POINT ( 'NONE',  ( 3.000000000000002200, 3.000000000000000000, 10.00000000000000000 ) ) ;
#287 = VERTEX_POINT ( 'NONE', #50 ) ;
#288 = EDGE_LOOP ( 'NONE', ( #243 ) ) ;
#289 = FACE_OUTER_BOUND ( 'NONE', #113, .T. ) ;
#290 = PRESENTATION_LAYER_ASSIGNMENT (  '', '', ( #345 ) ) ;
#291 = VECTOR ( 'NONE', #336, 1000.000000000000000 ) ;
#292 = CARTESIAN_POINT ( 'NONE',  ( 20.00000000000000000, 3.000000000000000000, 10.00000000000000000 ) ) ;
#293 = EDGE_LOOP ( 'NONE', ( #328 ) ) ;
#294 = SURFACE_STYLE_FILL_AREA ( #352 ) ;
#295 = EDGE_CURVE ( 'NONE', #315, #186, #375, .T. ) ;
#296 = LINE ( 'NONE', #183, #151 ) ;
#297 = VECTOR ( 'NONE', #309, 1000.000000000000000 ) ;
#298 = DIRECTION ( 'NONE',  ( 0.0000000000000000000, 0.0000000000000000000, 1.000000000000000000 ) ) ;
#299 = APPLICATION_PROTOCOL_DEFINITION ( 'draft international standard', 'automotive_design', 1998, #333 ) ;
#300 = ORIENTED_EDGE ( 'NONE', *, *, #160, .F. ) ;
#301 = DIRECTION ( 'NONE',  ( 0.0000000000000000000, -1.000000000000000000, 0.0000000000000000000 ) ) ;
#302 = UNCERTAINTY_MEASURE_WITH_UNIT (LENGTH_MEASURE( 1.000000000000000100E-005 ), #20, 'distance_accuracy_value', 'NONE');
#303 = ORIENTED_EDGE ( 'NONE', *, *, #82, .T. ) ;
#304 = COLOUR_RGB ( '',0.7764705882352941300, 0.7568627450980391900, 0.7372549019607843600 ) ;
#305 = APPLICATION_CONTEXT ( 'automotive_design' ) ;
#306 = CARTESIAN_POINT ( 'NONE',  ( 0.0000000000000000000, 0.0000000000000000000, 0.0000000000000000000 ) ) ;
#307 = FACE_BOUND ( 'NONE', #199, .T. ) ;
#308 = DIRECTION ( 'NONE',  ( 0.0000000000000000000, 0.0000000000000000000, 1.000000000000000000 ) ) ;
#309 = DIRECTION ( 'NONE',  ( -1.000000000000000000, -0.0000000000000000000, -0.0000000000000000000 ) ) ;
#310 = DIRECTION ( 'NONE',  ( -1.000000000000000000, -0.0000000000000000000, -0.0000000000000000000 ) ) ;
#311 = MECHANICAL_DESIGN_GEOMETRIC_PRESENTATION_REPRESENTATION (  '', ( #345 ), #154 ) ;
#312 = CARTESIAN_POINT ( 'NONE',  ( 0.5499999999999953800, 10.00000000000000000, 0.0000000000000000000 ) ) ;
#313 = ORIENTED_EDGE ( 'NONE', *, *, #116, .T. ) ;
#314 = FACE_BOUND ( 'NONE', #293, .T. ) ;
#315 = VERTEX_POINT ( 'NONE', #211 ) ;
#316 = VECTOR ( 'NONE', #112, 1000.000000000000000 ) ;
#317 = CARTESIAN_POINT ( 'NONE',  ( 20.00000000000000000, 0.0000000000000000000, 10.00000000000000000 ) ) ;
#318 = DIRECTION ( 'NONE',  ( 0.0000000000000000000, 0.0000000000000000000, 1.000000000000000000 ) ) ;
#319 = CARTESIAN_POINT ( 'NONE',  ( 20.00000000000000000, 0.0000000000000000000, -10.00000000000000000 ) ) ;
#320 = ORIENTED_EDGE ( 'NONE', *, *, #187, .T. ) ;
#321 = ORIENTED_EDGE ( 'NONE', *, *, #376, .F. ) ;
#322 = VECTOR ( 'NONE', #79, 1000.000000000000000 ) ;
#323 = CARTESIAN_POINT ( 'NONE',  ( 0.0000000000000000000, 0.0000000000000000000, -10.00000000000000000 ) ) ;
#324 = ADVANCED_BREP_SHAPE_REPRESENTATION ( '093WU201S', ( #123, #24 ), #191 ) ;
#325 = ORIENTED_EDGE ( 'NONE', *, *, #118, .T. ) ;
#326 = ADVANCED_FACE ( 'NONE', ( #152, #65 ), #29, .F. ) ;
#327 = DIRECTION ( 'NONE',  ( 0.0000000000000000000, 0.0000000000000000000, 1.000000000000000000 ) ) ;
#328 = ORIENTED_EDGE ( 'NONE', *, *, #160, .T. ) ;
#329 = AXIS2_PLACEMENT_3D ( 'NONE', #198, #12, #222 ) ;
#330 = ORIENTED_EDGE ( 'NONE', *, *, #270, .T. ) ;
#331 = LINE ( 'NONE', #55, #32 ) ;
#332 = ORIENTED_EDGE ( 'NONE', *, *, #94, .T. ) ;
#333 = APPLICATION_CONTEXT ( 'automotive_design' ) ;
#334 = CARTESIAN_POINT ( 'NONE',  ( 2.999999999999999600, 10.00000000000000000, 5.200000000000000200 ) ) ;
#335 = AXIS2_PLACEMENT_3D ( 'NONE', #164, #349, #298 ) ;
#336 = DIRECTION ( 'NONE',  ( -1.000000000000000000, -0.0000000000000000000, -0.0000000000000000000 ) ) ;
#337 = DIRECTION ( 'NONE',  ( 0.0000000000000000000, 0.0000000000000000000, -1.000000000000000000 ) ) ;
#338 = CARTESIAN_POINT ( 'NONE',  ( 20.00000000000000000, 3.000000000000000000, -10.00000000000000000 ) ) ;
#339 = VERTEX_POINT ( 'NONE', #358 ) ;
#340 = DIRECTION ( 'NONE',  ( 0.0000000000000000000, 0.0000000000000000000, 1.000000000000000000 ) ) ;
#341 = VECTOR ( 'NONE', #41, 1000.000000000000000 ) ;
#342 = CARTESIAN_POINT ( 'NONE',  ( 10.00000000000000000, 0.0000000000000000000, 0.0000000000000000000 ) ) ;
#343 = DIRECTION ( 'NONE',  ( 1.000000000000000000, 2.220446049250313100E-016, 0.0000000000000000000 ) ) ;
#344 = SHAPE_DEFINITION_REPRESENTATION ( #35, #324 ) ;
#345 = STYLED_ITEM ( 'NONE', ( #230 ), #123 ) ;
#346 = DIRECTION ( 'NONE',  ( 0.0000000000000000000, -0.0000000000000000000, 1.000000000000000000 ) ) ;
#347 = LINE ( 'NONE', #353, #277 ) ;
#348 = ADVANCED_FACE ( 'NONE', ( #221, #289 ), #216, .F. ) ;
#349 = DIRECTION ( 'NONE',  ( 1.000000000000000000, 2.220446049250313100E-016, 0.0000000000000000000 ) ) ;
#350 = LINE ( 'NONE', #229, #59 ) ;
#351 = EDGE_LOOP ( 'NONE', ( #300 ) ) ;
#352 = FILL_AREA_STYLE ('',( #134 ) ) ;
#353 = CARTESIAN_POINT ( 'NONE',  ( 20.00000000000000000, 3.000000000000000000, 10.00000000000000000 ) ) ;
#354 = DIRECTION ( 'NONE',  ( -0.0000000000000000000, 1.000000000000000000, -0.0000000000000000000 ) ) ;
#355 = SURFACE_SIDE_STYLE ('',( #133 ) ) ;
#356 = DIRECTION ( 'NONE',  ( 0.0000000000000000000, 0.0000000000000000000, 1.000000000000000000 ) ) ;
#357 = ORIENTED_EDGE ( 'NONE', *, *, #143, .T. ) ;
#358 = CARTESIAN_POINT ( 'NONE',  ( -2.220446049250313100E-015, 10.00000000000000000, 2.749999999999999100 ) ) ;
#359 = PLANE ( 'NONE',  #242 ) ;
#360 = CIRCLE ( 'NONE', #22, 5.200000000000000200 ) ;
#361 = LINE ( 'NONE', #257, #234 ) ;
#362 = CARTESIAN_POINT ( 'NONE',  ( 0.0000000000000000000, 20.00000000000000000, -10.00000000000000000 ) ) ;
#363 = CARTESIAN_POINT ( 'NONE',  ( 3.000000000000002200, 3.000000000000000000, -10.00000000000000000 ) ) ;
#364 = ORIENTED_EDGE ( 'NONE', *, *, #120, .T. ) ;
#365 = CARTESIAN_POINT ( 'NONE',  ( 10.00000000000000000, 0.5499999999999974900, 0.0000000000000000000 ) ) ;
#366 = EDGE_CURVE ( 'NONE', #170, #101, #350, .T. ) ;
#367 = ORIENTED_EDGE ( 'NONE', *, *, #129, .T. ) ;
#368 = EDGE_LOOP ( 'NONE', ( #224, #197, #321, #278 ) ) ;
#369 = ORIENTED_EDGE ( 'NONE', *, *, #295, .F. ) ;
#370 = FACE_OUTER_BOUND ( 'NONE', #13, .T. ) ;
#371 = DIRECTION ( 'NONE',  ( 0.0000000000000000000, 0.0000000000000000000, 1.000000000000000000 ) ) ;
#372 = DIRECTION ( 'NONE',  ( -0.0000000000000000000, -0.0000000000000000000, -1.000000000000000000 ) ) ;
#373 = AXIS2_PLACEMENT_3D ( 'NONE', #150, #343, #189 ) ;
#374 = VECTOR ( 'NONE', #214, 1000.000000000000000 ) ;
#375 = LINE ( 'NONE', #362, #297 ) ;
#376 = EDGE_CURVE ( 'NONE', #170, #14, #361, .T. ) ;
ENDSEC;
END-ISO-10303-21;
