ISO-10303-21;
HEADER;
FILE_DESCRIPTION (( 'STEP AP214' ),
    '1' );
FILE_NAME ('02_3D_Step_Files093wu302s.step',
    '2023-03-28T17:39:00',
    ( '' ),
    ( '' ),
    'SwSTEP 2.0',
    'SolidWorks 2022',
    '' );
FILE_SCHEMA (( 'AUTOMOTIVE_DESIGN' ));
ENDSEC;

DATA;
#1 = EDGE_LOOP ( 'NONE', ( #202, #297 ) ) ;
#2 = FACE_BOUND ( 'NONE', #147, .T. ) ;
#3 = CIRCLE ( 'NONE', #66, 3.399999999999986144 ) ;
#4 = ORIENTED_EDGE ( 'NONE', *, *, #282, .F. ) ;
#5 = ORIENTED_EDGE ( 'NONE', *, *, #345, .T. ) ;
#6 = ORIENTED_EDGE ( 'NONE', *, *, #267, .T. ) ;
#7 = EDGE_CURVE ( 'NONE', #13, #133, #132, .T. ) ;
#8 = CARTESIAN_POINT ( 'NONE',  ( 30.00000000000000000, 0.000000000000000000, 15.00000000000000000 ) ) ;
#9 = AXIS2_PLACEMENT_3D ( 'NONE', #273, #359, #126 ) ;
#10 = LINE ( 'NONE', #369, #396 ) ;
#11 = AXIS2_PLACEMENT_3D ( 'NONE', #142, #165, #201 ) ;
#12 = CARTESIAN_POINT ( 'NONE',  ( 3.000000000000000000, 30.00000000000000000, -15.00000000000000000 ) ) ;
#13 = VERTEX_POINT ( 'NONE', #392 ) ;
#14 = DIRECTION ( 'NONE',  ( 0.000000000000000000, -0.000000000000000000, -1.000000000000000000 ) ) ;
#15 = VERTEX_POINT ( 'NONE', #322 ) ;
#16 = CARTESIAN_POINT ( 'NONE',  ( 30.00000000000000000, 0.000000000000000000, 15.00000000000000000 ) ) ;
#17 = LINE ( 'NONE', #179, #155 ) ;
#18 = ORIENTED_EDGE ( 'NONE', *, *, #146, .T. ) ;
#19 = PLANE ( 'NONE',  #349 ) ;
#20 = EDGE_LOOP ( 'NONE', ( #44, #182, #4, #287 ) ) ;
#21 = LINE ( 'NONE', #307, #339 ) ;
#22 = CARTESIAN_POINT ( 'NONE',  ( 0.000000000000000000, 0.000000000000000000, 0.000000000000000000 ) ) ;
#23 = CARTESIAN_POINT ( 'NONE',  ( 3.000000000000003553, 2.999999999999999556, 15.00000000000000000 ) ) ;
#24 = EDGE_LOOP ( 'NONE', ( #88, #177, #351, #159 ) ) ;
#25 = CARTESIAN_POINT ( 'NONE',  ( 11.59999999999996945, -1.350589010869947822E-16, 0.000000000000000000 ) ) ;
#26 = ORIENTED_EDGE ( 'NONE', *, *, #256, .T. ) ;
#27 = FILL_AREA_STYLE_COLOUR ( '', #102 ) ;
#28 = CIRCLE ( 'NONE', #169, 6.400000000000001243 ) ;
#29 = LINE ( 'NONE', #100, #220 ) ;
#30 = DIRECTION ( 'NONE',  ( -1.000000000000000000, -1.606225440719266182E-17, -0.000000000000000000 ) ) ;
#31 = CARTESIAN_POINT ( 'NONE',  ( 15.00000000000000178, 3.000000000000001776, 0.000000000000000000 ) ) ;
#32 = DIRECTION ( 'NONE',  ( -1.000000000000000000, -1.284980352575412699E-16, 0.000000000000000000 ) ) ;
#33 = VECTOR ( 'NONE', #404, 1000.000000000000000 ) ;
#34 = DIRECTION ( 'NONE',  ( 0.7071067811865463515, 0.000000000000000000, -0.7071067811865487940 ) ) ;
#35 = ORIENTED_EDGE ( 'NONE', *, *, #200, .T. ) ;
#36 = EDGE_CURVE ( 'NONE', #382, #163, #29, .T. ) ;
#37 = EDGE_LOOP ( 'NONE', ( #42, #188, #75, #26, #384, #104 ) ) ;
#38 = CARTESIAN_POINT ( 'NONE',  ( 30.00000000000000000, 0.000000000000000000, -15.00000000000000000 ) ) ;
#39 = DIRECTION ( 'NONE',  ( -1.284980352575412699E-16, 1.000000000000000000, -0.000000000000000000 ) ) ;
#40 = EDGE_CURVE ( 'NONE', #15, #394, #252, .T. ) ;
#41 = CARTESIAN_POINT ( 'NONE',  ( 0.000000000000000000, 0.000000000000000000, 15.00000000000000000 ) ) ;
#42 = ORIENTED_EDGE ( 'NONE', *, *, #40, .T. ) ;
#43 = LINE ( 'NONE', #38, #356 ) ;
#44 = ORIENTED_EDGE ( 'NONE', *, *, #161, .T. ) ;
#45 = LINE ( 'NONE', #12, #237 ) ;
#46 = AXIS2_PLACEMENT_3D ( 'NONE', #41, #207, #304 ) ;
#47 = CARTESIAN_POINT ( 'NONE',  ( 0.000000000000000000, 0.000000000000000000, -15.00000000000000000 ) ) ;
#48 = VECTOR ( 'NONE', #72, 1000.000000000000000 ) ;
#49 = ADVANCED_FACE ( 'NONE', ( #387 ), #50, .F. ) ;
#50 = CONICAL_SURFACE ( 'NONE', #352, 3.399999999999986144, 0.7853981633974499443 ) ;
#51 = FACE_BOUND ( 'NONE', #52, .T. ) ;
#52 = EDGE_LOOP ( 'NONE', ( #385, #205 ) ) ;
#53 = FACE_OUTER_BOUND ( 'NONE', #380, .T. ) ;
#54 = ORIENTED_EDGE ( 'NONE', *, *, #121, .F. ) ;
#55 =( GEOMETRIC_REPRESENTATION_CONTEXT ( 3 ) GLOBAL_UNCERTAINTY_ASSIGNED_CONTEXT ( ( #302 ) ) GLOBAL_UNIT_ASSIGNED_CONTEXT ( ( #119, #283, #65 ) ) REPRESENTATION_CONTEXT ( 'NONE', 'WORKASPACE' ) );
#56 = CARTESIAN_POINT ( 'NONE',  ( 8.599999999999999645, 3.000000000000000000, 0.000000000000000000 ) ) ;
#57 = ADVANCED_FACE ( 'NONE', ( #414 ), #388, .T. ) ;
#58 = DIRECTION ( 'NONE',  ( -0.000000000000000000, -0.000000000000000000, -1.000000000000000000 ) ) ;
#59 = CONICAL_SURFACE ( 'NONE', #293, 6.400000000000001243, 0.7853981633974428389 ) ;
#60 = ORIENTED_EDGE ( 'NONE', *, *, #40, .F. ) ;
#61 = MANIFOLD_SOLID_BREP ( 'Schnitt-Rotation2', #389 ) ;
#62 = DIRECTION ( 'NONE',  ( 0.000000000000000000, 0.000000000000000000, -1.000000000000000000 ) ) ;
#63 = EDGE_CURVE ( 'NONE', #305, #222, #314, .T. ) ;
#64 = VECTOR ( 'NONE', #300, 1000.000000000000000 ) ;
#65 =( NAMED_UNIT ( * ) SI_UNIT ( $, .STERADIAN. ) SOLID_ANGLE_UNIT ( ) );
#66 = AXIS2_PLACEMENT_3D ( 'NONE', #218, #82, #242 ) ;
#67 =( LENGTH_UNIT ( ) NAMED_UNIT ( * ) SI_UNIT ( .MILLI., .METRE. ) );
#68 = ORIENTED_EDGE ( 'NONE', *, *, #173, .T. ) ;
#69 = ORIENTED_EDGE ( 'NONE', *, *, #7, .F. ) ;
#70 = ADVANCED_FACE ( 'NONE', ( #2, #226 ), #362, .F. ) ;
#71 = CIRCLE ( 'NONE', #11, 3.400000000000033218 ) ;
#72 = DIRECTION ( 'NONE',  ( 1.000000000000000000, 0.000000000000000000, 0.000000000000000000 ) ) ;
#73 = DIRECTION ( 'NONE',  ( -1.000000000000000000, 0.000000000000000000, 0.000000000000000000 ) ) ;
#74 = ADVANCED_FACE ( 'NONE', ( #373 ), #59, .F. ) ;
#75 = ORIENTED_EDGE ( 'NONE', *, *, #97, .T. ) ;
#76 = DIRECTION ( 'NONE',  ( -0.000000000000000000, -1.000000000000000000, -0.000000000000000000 ) ) ;
#77 = DIRECTION ( 'NONE',  ( 1.284980352575412699E-16, -1.000000000000000000, 0.000000000000000000 ) ) ;
#78 =( GEOMETRIC_REPRESENTATION_CONTEXT ( 3 ) GLOBAL_UNCERTAINTY_ASSIGNED_CONTEXT ( ( #204 ) ) GLOBAL_UNIT_ASSIGNED_CONTEXT ( ( #67, #124, #360 ) ) REPRESENTATION_CONTEXT ( 'NONE', 'WORKASPACE' ) );
#79 = CARTESIAN_POINT ( 'NONE',  ( 0.000000000000000000, 15.00000000000000000, 3.399999999999986144 ) ) ;
#80 = FACE_BOUND ( 'NONE', #326, .T. ) ;
#81 = CIRCLE ( 'NONE', #375, 6.399999999999999467 ) ;
#82 = DIRECTION ( 'NONE',  ( -1.000000000000000000, -0.000000000000000000, -0.000000000000000000 ) ) ;
#83 = ORIENTED_EDGE ( 'NONE', *, *, #173, .F. ) ;
#84 = AXIS2_PLACEMENT_3D ( 'NONE', #139, #199, #264 ) ;
#85 = LINE ( 'NONE', #412, #272 ) ;
#86 = EDGE_CURVE ( 'NONE', #274, #240, #45, .T. ) ;
#87 = DIRECTION ( 'NONE',  ( 0.000000000000000000, 0.000000000000000000, 1.000000000000000000 ) ) ;
#88 = ORIENTED_EDGE ( 'NONE', *, *, #312, .T. ) ;
#89 = VECTOR ( 'NONE', #270, 999.9999999999998863 ) ;
#90 = DIRECTION ( 'NONE',  ( 0.000000000000000000, 1.000000000000000000, 0.000000000000000000 ) ) ;
#91 = VERTEX_POINT ( 'NONE', #203 ) ;
#92 = ADVANCED_FACE ( 'NONE', ( #138, #263 ), #105, .F. ) ;
#93 = SURFACE_STYLE_FILL_AREA ( #156 ) ;
#94 = STYLED_ITEM ( 'NONE', ( #154 ), #225 ) ;
#95 = EDGE_LOOP ( 'NONE', ( #347, #308, #150, #258, #54, #243 ) ) ;
#96 = DIRECTION ( 'NONE',  ( 0.000000000000000000, 0.000000000000000000, -1.000000000000000000 ) ) ;
#97 = EDGE_CURVE ( 'NONE', #91, #382, #399, .T. ) ;
#98 = CARTESIAN_POINT ( 'NONE',  ( 0.000000000000000000, 15.00000000000000000, 3.399999999999986144 ) ) ;
#99 = PRESENTATION_STYLE_ASSIGNMENT (( #255 ) ) ;
#100 = CARTESIAN_POINT ( 'NONE',  ( 30.00000000000000000, 3.000000000000000000, 15.00000000000000000 ) ) ;
#101 = CARTESIAN_POINT ( 'NONE',  ( 3.000000000000000000, 30.00000000000000000, 15.00000000000000000 ) ) ;
#102 = COLOUR_RGB ( '',0.5999999999999999778, 0.5999999999999999778, 0.5999999999999999778 ) ;
#103 = PRODUCT_DEFINITION ( 'UNKNOWN', '', #401, #135 ) ;
#104 = ORIENTED_EDGE ( 'NONE', *, *, #212, .T. ) ;
#105 = PLANE ( 'NONE',  #46 ) ;
#106 = VERTEX_POINT ( 'NONE', #111 ) ;
#107 = FACE_OUTER_BOUND ( 'NONE', #295, .T. ) ;
#108 = CIRCLE ( 'NONE', #405, 6.399999999999999467 ) ;
#109 = CARTESIAN_POINT ( 'NONE',  ( 3.000000000000003553, 2.999999999999999556, 15.00000000000000000 ) ) ;
#110 = ADVANCED_FACE ( 'NONE', ( #170 ), #175, .F. ) ;
#111 = CARTESIAN_POINT ( 'NONE',  ( 30.00000000000000000, 0.000000000000000000, -15.00000000000000000 ) ) ;
#112 = CARTESIAN_POINT ( 'NONE',  ( 0.000000000000000000, 15.00000000000000000, 0.000000000000000000 ) ) ;
#113 = ORIENTED_EDGE ( 'NONE', *, *, #219, .T. ) ;
#114 = CARTESIAN_POINT ( 'NONE',  ( 3.000000000000003553, 2.999999999999999556, -15.00000000000000000 ) ) ;
#115 = CARTESIAN_POINT ( 'NONE',  ( 0.000000000000000000, 30.00000000000000000, 15.00000000000000000 ) ) ;
#116 = VERTEX_POINT ( 'NONE', #334 ) ;
#117 = DIRECTION ( 'NONE',  ( -1.000000000000000000, -1.606225440719266182E-17, -0.000000000000000000 ) ) ;
#118 = ORIENTED_EDGE ( 'NONE', *, *, #178, .T. ) ;
#119 =( LENGTH_UNIT ( ) NAMED_UNIT ( * ) SI_UNIT ( .MILLI., .METRE. ) );
#120 = EDGE_LOOP ( 'NONE', ( #353, #83, #261, #217 ) ) ;
#121 = EDGE_CURVE ( 'NONE', #106, #163, #43, .T. ) ;
#122 = SURFACE_SIDE_STYLE ('',( #93 ) ) ;
#123 = APPLICATION_PROTOCOL_DEFINITION ( 'draft international standard', 'automotive_design', 1998, #344 ) ;
#124 =( NAMED_UNIT ( * ) PLANE_ANGLE_UNIT ( ) SI_UNIT ( $, .RADIAN. ) );
#125 =( LENGTH_UNIT ( ) NAMED_UNIT ( * ) SI_UNIT ( .MILLI., .METRE. ) );
#126 = DIRECTION ( 'NONE',  ( 0.000000000000000000, 0.000000000000000000, -1.000000000000000000 ) ) ;
#127 = VECTOR ( 'NONE', #34, 999.9999999999998863 ) ;
#128 = DIRECTION ( 'NONE',  ( -0.000000000000000000, -0.000000000000000000, -1.000000000000000000 ) ) ;
#129 = ADVANCED_FACE ( 'NONE', ( #107 ), #338, .F. ) ;
#130 = ORIENTED_EDGE ( 'NONE', *, *, #246, .F. ) ;
#131 = AXIS2_PLACEMENT_3D ( 'NONE', #31, #291, #288 ) ;
#132 = LINE ( 'NONE', #257, #231 ) ;
#133 = VERTEX_POINT ( 'NONE', #101 ) ;
#134 = DIRECTION ( 'NONE',  ( -1.000000000000000000, -0.000000000000000000, -0.000000000000000000 ) ) ;
#135 = PRODUCT_DEFINITION_CONTEXT ( 'detailed design', #344, 'design' ) ;
#136 = ORIENTED_EDGE ( 'NONE', *, *, #234, .T. ) ;
#137 = CARTESIAN_POINT ( 'NONE',  ( 30.00000000000000000, 0.000000000000000000, 15.00000000000000000 ) ) ;
#138 = FACE_BOUND ( 'NONE', #1, .T. ) ;
#139 = CARTESIAN_POINT ( 'NONE',  ( 15.00000000000000355, 8.673617379884035472E-16, 0.000000000000000000 ) ) ;
#140 = VECTOR ( 'NONE', #195, 999.9999999999998863 ) ;
#141 = EDGE_CURVE ( 'NONE', #413, #343, #81, .T. ) ;
#142 = CARTESIAN_POINT ( 'NONE',  ( 15.00000000000000355, 8.673617379884035472E-16, 0.000000000000000000 ) ) ;
#143 = CARTESIAN_POINT ( 'NONE',  ( 0.000000000000000000, 30.00000000000000000, -15.00000000000000000 ) ) ;
#144 = APPLICATION_CONTEXT ( 'automotive_design' ) ;
#145 = DIRECTION ( 'NONE',  ( -1.000000000000000000, -0.000000000000000000, -0.000000000000000000 ) ) ;
#146 = EDGE_CURVE ( 'NONE', #91, #106, #262, .T. ) ;
#147 = EDGE_LOOP ( 'NONE', ( #136, #230 ) ) ;
#148 = FACE_OUTER_BOUND ( 'NONE', #20, .T. ) ;
#149 = DIRECTION ( 'NONE',  ( 1.000000000000000000, 0.000000000000000000, 0.000000000000000000 ) ) ;
#150 = ORIENTED_EDGE ( 'NONE', *, *, #86, .F. ) ;
#151 = LINE ( 'NONE', #115, #319 ) ;
#152 = ORIENTED_EDGE ( 'NONE', *, *, #164, .F. ) ;
#153 = AXIS2_PLACEMENT_3D ( 'NONE', #172, #366, #235 ) ;
#154 = PRESENTATION_STYLE_ASSIGNMENT (( #416 ) ) ;
#155 = VECTOR ( 'NONE', #58, 1000.000000000000000 ) ;
#156 = FILL_AREA_STYLE ('',( #27 ) ) ;
#157 = VECTOR ( 'NONE', #209, 1000.000000000000000 ) ;
#158 = MECHANICAL_DESIGN_GEOMETRIC_PRESENTATION_REPRESENTATION (  '', ( #275 ), #78 ) ;
#159 = ORIENTED_EDGE ( 'NONE', *, *, #411, .F. ) ;
#160 = CARTESIAN_POINT ( 'NONE',  ( 30.00000000000000000, 3.000000000000000000, 15.00000000000000000 ) ) ;
#161 = EDGE_CURVE ( 'NONE', #335, #106, #332, .T. ) ;
#162 = DIRECTION ( 'NONE',  ( -1.284980352575412699E-16, 1.000000000000000000, -0.000000000000000000 ) ) ;
#163 = VERTEX_POINT ( 'NONE', #371 ) ;
#164 = EDGE_CURVE ( 'NONE', #116, #328, #327, .T. ) ;
#165 = DIRECTION ( 'NONE',  ( -2.948295997280554610E-16, 1.000000000000000000, -0.000000000000000000 ) ) ;
#166 = AXIS2_PLACEMENT_3D ( 'NONE', #398, #395, #14 ) ;
#167 = CARTESIAN_POINT ( 'NONE',  ( 3.000000000000003553, 15.00000000000000000, 0.000000000000000000 ) ) ;
#168 = UNCERTAINTY_MEASURE_WITH_UNIT (LENGTH_MEASURE( 1.000000000000000082E-05 ), #125, 'distance_accuracy_value', 'NONE');
#169 = AXIS2_PLACEMENT_3D ( 'NONE', #331, #260, #236 ) ;
#170 = FACE_OUTER_BOUND ( 'NONE', #294, .T. ) ;
#171 = ORIENTED_EDGE ( 'NONE', *, *, #86, .T. ) ;
#172 = CARTESIAN_POINT ( 'NONE',  ( 15.00000000000000178, 3.000000000000001776, 0.000000000000000000 ) ) ;
#173 = EDGE_CURVE ( 'NONE', #13, #274, #402, .T. ) ;
#174 = ORIENTED_EDGE ( 'NONE', *, *, #206, .T. ) ;
#175 = PLANE ( 'NONE',  #166 ) ;
#176 = DIRECTION ( 'NONE',  ( -1.000000000000000000, -0.000000000000000000, -0.000000000000000000 ) ) ;
#177 = ORIENTED_EDGE ( 'NONE', *, *, #400, .T. ) ;
#178 = EDGE_CURVE ( 'NONE', #222, #305, #28, .T. ) ;
#179 = CARTESIAN_POINT ( 'NONE',  ( 0.000000000000000000, 0.000000000000000000, 15.00000000000000000 ) ) ;
#180 = ORIENTED_EDGE ( 'NONE', *, *, #345, .F. ) ;
#181 = LINE ( 'NONE', #184, #259 ) ;
#182 = ORIENTED_EDGE ( 'NONE', *, *, #146, .F. ) ;
#183 = VECTOR ( 'NONE', #149, 1000.000000000000000 ) ;
#184 = CARTESIAN_POINT ( 'NONE',  ( 0.000000000000000000, 30.00000000000000000, 15.00000000000000000 ) ) ;
#185 = VERTEX_POINT ( 'NONE', #79 ) ;
#186 = FILL_AREA_STYLE_COLOUR ( '', #376 ) ;
#187 = DIRECTION ( 'NONE',  ( 0.000000000000000000, -0.000000000000000000, 1.000000000000000000 ) ) ;
#188 = ORIENTED_EDGE ( 'NONE', *, *, #282, .T. ) ;
#189 = ADVANCED_FACE ( 'NONE', ( #403 ), #368, .F. ) ;
#190 = CARTESIAN_POINT ( 'NONE',  ( 0.000000000000000000, 30.00000000000000000, -15.00000000000000000 ) ) ;
#191 = SURFACE_STYLE_FILL_AREA ( #278 ) ;
#192 =( GEOMETRIC_REPRESENTATION_CONTEXT ( 3 ) GLOBAL_UNCERTAINTY_ASSIGNED_CONTEXT ( ( #168 ) ) GLOBAL_UNIT_ASSIGNED_CONTEXT ( ( #125, #386, #410 ) ) REPRESENTATION_CONTEXT ( 'NONE', 'WORKASPACE' ) );
#193 = EDGE_CURVE ( 'NONE', #328, #116, #71, .T. ) ;
#194 = CARTESIAN_POINT ( 'NONE',  ( 3.000000000000000000, 30.00000000000000000, 15.00000000000000000 ) ) ;
#195 = DIRECTION ( 'NONE',  ( 0.7071067811865463515, 8.659560562354948882E-17, 0.7071067811865487940 ) ) ;
#196 = MECHANICAL_DESIGN_GEOMETRIC_PRESENTATION_REPRESENTATION (  '', ( #94 ), #192 ) ;
#197 = ORIENTED_EDGE ( 'NONE', *, *, #63, .T. ) ;
#198 = AXIS2_PLACEMENT_3D ( 'NONE', #16, #73, #329 ) ;
#199 = DIRECTION ( 'NONE',  ( -2.948295997280554610E-16, 1.000000000000000000, -0.000000000000000000 ) ) ;
#200 = EDGE_CURVE ( 'NONE', #277, #335, #10, .T. ) ;
#201 = DIRECTION ( 'NONE',  ( -1.000000000000000000, -2.948295997280554610E-16, 0.000000000000000000 ) ) ;
#202 = ORIENTED_EDGE ( 'NONE', *, *, #312, .F. ) ;
#203 = CARTESIAN_POINT ( 'NONE',  ( 30.00000000000000000, 0.000000000000000000, 15.00000000000000000 ) ) ;
#204 = UNCERTAINTY_MEASURE_WITH_UNIT (LENGTH_MEASURE( 1.000000000000000082E-05 ), #67, 'distance_accuracy_value', 'NONE');
#205 = ORIENTED_EDGE ( 'NONE', *, *, #164, .T. ) ;
#206 = EDGE_CURVE ( 'NONE', #185, #310, #241, .T. ) ;
#207 = DIRECTION ( 'NONE',  ( 1.000000000000000000, 0.000000000000000000, 0.000000000000000000 ) ) ;
#208 = EDGE_LOOP ( 'NONE', ( #303, #250, #248, #18 ) ) ;
#209 = DIRECTION ( 'NONE',  ( -0.000000000000000000, -0.000000000000000000, -1.000000000000000000 ) ) ;
#210 = CARTESIAN_POINT ( 'NONE',  ( 3.000000000000003553, 2.999999999999999556, 15.00000000000000000 ) ) ;
#211 = AXIS2_PLACEMENT_3D ( 'NONE', #22, #281, #223 ) ;
#212 = EDGE_CURVE ( 'NONE', #133, #15, #181, .T. ) ;
#213 = PLANE ( 'NONE',  #393 ) ;
#214 = DIRECTION ( 'NONE',  ( 1.606225440719266182E-17, -1.000000000000000000, 0.000000000000000000 ) ) ;
#215 = ORIENTED_EDGE ( 'NONE', *, *, #63, .F. ) ;
#216 = PLANE ( 'NONE',  #289 ) ;
#217 = ORIENTED_EDGE ( 'NONE', *, *, #36, .T. ) ;
#218 = CARTESIAN_POINT ( 'NONE',  ( 0.000000000000000000, 15.00000000000000000, 0.000000000000000000 ) ) ;
#219 = EDGE_CURVE ( 'NONE', #240, #277, #21, .T. ) ;
#220 = VECTOR ( 'NONE', #128, 1000.000000000000000 ) ;
#221 = CARTESIAN_POINT ( 'NONE',  ( 3.000000000000003553, 15.00000000000000000, 6.399999999999999467 ) ) ;
#222 = VERTEX_POINT ( 'NONE', #56 ) ;
#223 = DIRECTION ( 'NONE',  ( 1.000000000000000000, 0.000000000000000000, 0.000000000000000000 ) ) ;
#224 = VECTOR ( 'NONE', #117, 1000.000000000000000 ) ;
#225 = ADVANCED_BREP_SHAPE_REPRESENTATION ( '02_3D_Step_Files093wu302s', ( #61, #211 ), #55 ) ;
#226 = FACE_OUTER_BOUND ( 'NONE', #251, .T. ) ;
#227 = ORIENTED_EDGE ( 'NONE', *, *, #212, .F. ) ;
#228 = ORIENTED_EDGE ( 'NONE', *, *, #178, .F. ) ;
#229 = DIRECTION ( 'NONE',  ( 1.000000000000000000, 0.000000000000000000, 0.000000000000000000 ) ) ;
#230 = ORIENTED_EDGE ( 'NONE', *, *, #141, .T. ) ;
#231 = VECTOR ( 'NONE', #162, 1000.000000000000000 ) ;
#232 = DIRECTION ( 'NONE',  ( -1.000000000000000000, -2.710505431213760592E-16, 0.000000000000000000 ) ) ;
#233 = CARTESIAN_POINT ( 'NONE',  ( 0.000000000000000000, 0.000000000000000000, -15.00000000000000000 ) ) ;
#234 = EDGE_CURVE ( 'NONE', #343, #413, #108, .T. ) ;
#235 = DIRECTION ( 'NONE',  ( -1.000000000000000000, -2.710505431213760592E-16, 0.000000000000000000 ) ) ;
#236 = DIRECTION ( 'NONE',  ( -1.000000000000000000, -2.710505431213760592E-16, 0.000000000000000000 ) ) ;
#237 = VECTOR ( 'NONE', #39, 1000.000000000000000 ) ;
#238 = FACE_OUTER_BOUND ( 'NONE', #37, .T. ) ;
#239 = CARTESIAN_POINT ( 'NONE',  ( 21.40000000000000213, 3.000000000000003553, 7.837739514543061906E-16 ) ) ;
#240 = VERTEX_POINT ( 'NONE', #406 ) ;
#241 = CIRCLE ( 'NONE', #370, 3.399999999999986144 ) ;
#242 = DIRECTION ( 'NONE',  ( 0.000000000000000000, 0.000000000000000000, 1.000000000000000000 ) ) ;
#243 = ORIENTED_EDGE ( 'NONE', *, *, #161, .F. ) ;
#244 = DIRECTION ( 'NONE',  ( -1.000000000000000000, -0.000000000000000000, -0.000000000000000000 ) ) ;
#245 = ORIENTED_EDGE ( 'NONE', *, *, #299, .T. ) ;
#246 = EDGE_CURVE ( 'NONE', #394, #335, #17, .T. ) ;
#247 = LINE ( 'NONE', #23, #224 ) ;
#248 = ORIENTED_EDGE ( 'NONE', *, *, #97, .F. ) ;
#249 = SHAPE_DEFINITION_REPRESENTATION ( #358, #225 ) ;
#250 = ORIENTED_EDGE ( 'NONE', *, *, #36, .F. ) ;
#251 = EDGE_LOOP ( 'NONE', ( #171, #397, #69, #68 ) ) ;
#252 = LINE ( 'NONE', #357, #408 ) ;
#253 = DIRECTION ( 'NONE',  ( -0.000000000000000000, -1.000000000000000000, -0.000000000000000000 ) ) ;
#254 = CARTESIAN_POINT ( 'NONE',  ( 0.000000000000000000, 0.000000000000000000, 15.00000000000000000 ) ) ;
#255 = SURFACE_STYLE_USAGE ( .BOTH. , #122 ) ;
#256 = EDGE_CURVE ( 'NONE', #382, #13, #247, .T. ) ;
#257 = CARTESIAN_POINT ( 'NONE',  ( 3.000000000000000000, 30.00000000000000000, 15.00000000000000000 ) ) ;
#258 = ORIENTED_EDGE ( 'NONE', *, *, #367, .F. ) ;
#259 = VECTOR ( 'NONE', #316, 1000.000000000000000 ) ;
#260 = DIRECTION ( 'NONE',  ( -2.948295997280554610E-16, 1.000000000000000000, -0.000000000000000000 ) ) ;
#261 = ORIENTED_EDGE ( 'NONE', *, *, #256, .F. ) ;
#262 = LINE ( 'NONE', #137, #64 ) ;
#263 = FACE_OUTER_BOUND ( 'NONE', #333, .T. ) ;
#264 = DIRECTION ( 'NONE',  ( -1.000000000000000000, -2.948295997280554610E-16, 0.000000000000000000 ) ) ;
#265 = PRESENTATION_LAYER_ASSIGNMENT (  '', '', ( #94 ) ) ;
#266 = DIRECTION ( 'NONE',  ( -2.948295997280554610E-16, 1.000000000000000000, -0.000000000000000000 ) ) ;
#267 = EDGE_CURVE ( 'NONE', #133, #240, #381, .T. ) ;
#268 = CARTESIAN_POINT ( 'NONE',  ( 3.000000000000000000, 30.00000000000000000, 15.00000000000000000 ) ) ;
#269 = EDGE_LOOP ( 'NONE', ( #152, #378, #197, #180 ) ) ;
#270 = DIRECTION ( 'NONE',  ( 0.7071067811865435759, 0.7071067811865515695, 8.659560562354887252E-17 ) ) ;
#271 = ORIENTED_EDGE ( 'NONE', *, *, #193, .F. ) ;
#272 = VECTOR ( 'NONE', #379, 999.9999999999998863 ) ;
#273 = CARTESIAN_POINT ( 'NONE',  ( 0.000000000000000000, 15.00000000000000000, 0.000000000000000000 ) ) ;
#274 = VERTEX_POINT ( 'NONE', #114 ) ;
#275 = STYLED_ITEM ( 'NONE', ( #99 ), #61 ) ;
#276 = FACE_OUTER_BOUND ( 'NONE', #120, .T. ) ;
#277 = VERTEX_POINT ( 'NONE', #143 ) ;
#278 = FILL_AREA_STYLE ('',( #186 ) ) ;
#279 = LINE ( 'NONE', #374, #89 ) ;
#280 = VECTOR ( 'NONE', #296, 1000.000000000000000 ) ;
#281 = DIRECTION ( 'NONE',  ( 0.000000000000000000, 0.000000000000000000, 1.000000000000000000 ) ) ;
#282 = EDGE_CURVE ( 'NONE', #394, #91, #348, .T. ) ;
#283 =( NAMED_UNIT ( * ) PLANE_ANGLE_UNIT ( ) SI_UNIT ( $, .RADIAN. ) );
#284 = ORIENTED_EDGE ( 'NONE', *, *, #299, .F. ) ;
#285 = AXIS2_PLACEMENT_3D ( 'NONE', #190, #96, #318 ) ;
#286 = PRODUCT_CONTEXT ( 'NONE', #144, 'mechanical' ) ;
#287 = ORIENTED_EDGE ( 'NONE', *, *, #246, .T. ) ;
#288 = DIRECTION ( 'NONE',  ( -1.000000000000000000, -2.710505431213760592E-16, 0.000000000000000000 ) ) ;
#289 = AXIS2_PLACEMENT_3D ( 'NONE', #346, #90, #187 ) ;
#290 = LINE ( 'NONE', #321, #298 ) ;
#291 = DIRECTION ( 'NONE',  ( -2.948295997280554610E-16, 1.000000000000000000, -0.000000000000000000 ) ) ;
#292 = ADVANCED_FACE ( 'NONE', ( #238 ), #19, .F. ) ;
#293 = AXIS2_PLACEMENT_3D ( 'NONE', #336, #266, #232 ) ;
#294 = EDGE_LOOP ( 'NONE', ( #113, #284, #227, #6 ) ) ;
#295 = EDGE_LOOP ( 'NONE', ( #365, #271, #5, #118 ) ) ;
#296 = DIRECTION ( 'NONE',  ( 0.000000000000000000, 1.000000000000000000, 0.000000000000000000 ) ) ;
#297 = ORIENTED_EDGE ( 'NONE', *, *, #206, .F. ) ;
#298 = VECTOR ( 'NONE', #30, 1000.000000000000000 ) ;
#299 = EDGE_CURVE ( 'NONE', #15, #277, #151, .T. ) ;
#300 = DIRECTION ( 'NONE',  ( -0.000000000000000000, -0.000000000000000000, -1.000000000000000000 ) ) ;
#301 = DIRECTION ( 'NONE',  ( 0.000000000000000000, 1.000000000000000000, 0.000000000000000000 ) ) ;
#302 = UNCERTAINTY_MEASURE_WITH_UNIT (LENGTH_MEASURE( 1.000000000000000082E-05 ), #119, 'distance_accuracy_value', 'NONE');
#303 = ORIENTED_EDGE ( 'NONE', *, *, #121, .T. ) ;
#304 = DIRECTION ( 'NONE',  ( 0.000000000000000000, 0.000000000000000000, -1.000000000000000000 ) ) ;
#305 = VERTEX_POINT ( 'NONE', #239 ) ;
#306 = DIRECTION ( 'NONE',  ( 0.000000000000000000, 0.000000000000000000, 1.000000000000000000 ) ) ;
#307 = CARTESIAN_POINT ( 'NONE',  ( 0.000000000000000000, 30.00000000000000000, -15.00000000000000000 ) ) ;
#308 = ORIENTED_EDGE ( 'NONE', *, *, #219, .F. ) ;
#309 = DIRECTION ( 'NONE',  ( -0.000000000000000000, -0.000000000000000000, -1.000000000000000000 ) ) ;
#310 = VERTEX_POINT ( 'NONE', #377 ) ;
#311 = CARTESIAN_POINT ( 'NONE',  ( 0.000000000000000000, 0.000000000000000000, 15.00000000000000000 ) ) ;
#312 = EDGE_CURVE ( 'NONE', #310, #185, #3, .T. ) ;
#313 = CARTESIAN_POINT ( 'NONE',  ( 3.000000000000003553, 15.00000000000000000, -6.399999999999999467 ) ) ;
#314 = CIRCLE ( 'NONE', #131, 6.400000000000001243 ) ;
#315 = APPLICATION_PROTOCOL_DEFINITION ( 'draft international standard', 'automotive_design', 1998, #144 ) ;
#316 = DIRECTION ( 'NONE',  ( -1.000000000000000000, -0.000000000000000000, -0.000000000000000000 ) ) ;
#317 = ORIENTED_EDGE ( 'NONE', *, *, #141, .F. ) ;
#318 = DIRECTION ( 'NONE',  ( -1.000000000000000000, 0.000000000000000000, -0.000000000000000000 ) ) ;
#319 = VECTOR ( 'NONE', #309, 1000.000000000000000 ) ;
#320 = SURFACE_SIDE_STYLE ('',( #191 ) ) ;
#321 = CARTESIAN_POINT ( 'NONE',  ( 3.000000000000003553, 2.999999999999999556, -15.00000000000000000 ) ) ;
#322 = CARTESIAN_POINT ( 'NONE',  ( 0.000000000000000000, 30.00000000000000000, 15.00000000000000000 ) ) ;
#323 = ADVANCED_FACE ( 'NONE', ( #51, #148 ), #216, .F. ) ;
#324 = CONICAL_SURFACE ( 'NONE', #9, 3.399999999999986144, 0.7853981633974499443 ) ;
#325 = LINE ( 'NONE', #355, #127 ) ;
#326 = EDGE_LOOP ( 'NONE', ( #228, #215 ) ) ;
#327 = CIRCLE ( 'NONE', #84, 3.400000000000033218 ) ;
#328 = VERTEX_POINT ( 'NONE', #25 ) ;
#329 = DIRECTION ( 'NONE',  ( 0.000000000000000000, 0.000000000000000000, 1.000000000000000000 ) ) ;
#330 = EDGE_CURVE ( 'NONE', #116, #305, #279, .T. ) ;
#331 = CARTESIAN_POINT ( 'NONE',  ( 15.00000000000000178, 3.000000000000001776, 0.000000000000000000 ) ) ;
#332 = LINE ( 'NONE', #233, #48 ) ;
#333 = EDGE_LOOP ( 'NONE', ( #35, #130, #60, #245 ) ) ;
#334 = CARTESIAN_POINT ( 'NONE',  ( 18.40000000000003411, 1.869782377063801877E-15, 6.000769315822054406E-16 ) ) ;
#335 = VERTEX_POINT ( 'NONE', #47 ) ;
#336 = CARTESIAN_POINT ( 'NONE',  ( 15.00000000000000178, 3.000000000000001776, 0.000000000000000000 ) ) ;
#337 = PRODUCT_RELATED_PRODUCT_CATEGORY ( 'part', '', ( #415 ) ) ;
#338 = CONICAL_SURFACE ( 'NONE', #153, 6.400000000000001243, 0.7853981633974428389 ) ;
#339 = VECTOR ( 'NONE', #176, 1000.000000000000000 ) ;
#340 = DIRECTION ( 'NONE',  ( 1.000000000000000000, 1.606225440719266182E-17, 0.000000000000000000 ) ) ;
#341 = DIRECTION ( 'NONE',  ( 0.000000000000000000, 0.000000000000000000, -1.000000000000000000 ) ) ;
#342 = PRESENTATION_LAYER_ASSIGNMENT (  '', '', ( #275 ) ) ;
#343 = VERTEX_POINT ( 'NONE', #313 ) ;
#344 = APPLICATION_CONTEXT ( 'automotive_design' ) ;
#345 = EDGE_CURVE ( 'NONE', #328, #222, #85, .T. ) ;
#346 = CARTESIAN_POINT ( 'NONE',  ( 0.000000000000000000, 0.000000000000000000, 15.00000000000000000 ) ) ;
#347 = ORIENTED_EDGE ( 'NONE', *, *, #200, .F. ) ;
#348 = LINE ( 'NONE', #311, #183 ) ;
#349 = AXIS2_PLACEMENT_3D ( 'NONE', #383, #341, #407 ) ;
#350 = DIRECTION ( 'NONE',  ( 0.000000000000000000, 0.000000000000000000, 1.000000000000000000 ) ) ;
#351 = ORIENTED_EDGE ( 'NONE', *, *, #234, .F. ) ;
#352 = AXIS2_PLACEMENT_3D ( 'NONE', #364, #229, #62 ) ;
#353 = ORIENTED_EDGE ( 'NONE', *, *, #367, .T. ) ;
#354 = ADVANCED_FACE ( 'NONE', ( #80, #276 ), #213, .F. ) ;
#355 = CARTESIAN_POINT ( 'NONE',  ( 0.000000000000000000, 15.00000000000000000, -3.399999999999986144 ) ) ;
#356 = VECTOR ( 'NONE', #301, 1000.000000000000000 ) ;
#357 = CARTESIAN_POINT ( 'NONE',  ( 0.000000000000000000, 0.000000000000000000, 15.00000000000000000 ) ) ;
#358 = PRODUCT_DEFINITION_SHAPE ( 'NONE', 'NONE',  #103 ) ;
#359 = DIRECTION ( 'NONE',  ( 1.000000000000000000, 0.000000000000000000, 0.000000000000000000 ) ) ;
#360 =( NAMED_UNIT ( * ) SI_UNIT ( $, .STERADIAN. ) SOLID_ANGLE_UNIT ( ) );
#361 = ADVANCED_FACE ( 'NONE', ( #53 ), #324, .F. ) ;
#362 = PLANE ( 'NONE',  #372 ) ;
#363 = LINE ( 'NONE', #98, #140 ) ;
#364 = CARTESIAN_POINT ( 'NONE',  ( 0.000000000000000000, 15.00000000000000000, 0.000000000000000000 ) ) ;
#365 = ORIENTED_EDGE ( 'NONE', *, *, #330, .F. ) ;
#366 = DIRECTION ( 'NONE',  ( -2.948295997280554610E-16, 1.000000000000000000, -0.000000000000000000 ) ) ;
#367 = EDGE_CURVE ( 'NONE', #163, #274, #290, .T. ) ;
#368 = PLANE ( 'NONE',  #198 ) ;
#369 = CARTESIAN_POINT ( 'NONE',  ( 0.000000000000000000, 0.000000000000000000, -15.00000000000000000 ) ) ;
#370 = AXIS2_PLACEMENT_3D ( 'NONE', #112, #145, #87 ) ;
#371 = CARTESIAN_POINT ( 'NONE',  ( 30.00000000000000000, 3.000000000000000000, -15.00000000000000000 ) ) ;
#372 = AXIS2_PLACEMENT_3D ( 'NONE', #194, #32, #77 ) ;
#373 = FACE_OUTER_BOUND ( 'NONE', #269, .T. ) ;
#374 = CARTESIAN_POINT ( 'NONE',  ( 21.40000000000000213, 3.000000000000003553, 7.837739514543061906E-16 ) ) ;
#375 = AXIS2_PLACEMENT_3D ( 'NONE', #167, #134, #306 ) ;
#376 = COLOUR_RGB ( '',0.5999999999999999778, 0.5999999999999999778, 0.5999999999999999778 ) ;
#377 = CARTESIAN_POINT ( 'NONE',  ( 0.000000000000000000, 15.00000000000000000, -3.399999999999986144 ) ) ;
#378 = ORIENTED_EDGE ( 'NONE', *, *, #330, .T. ) ;
#379 = DIRECTION ( 'NONE',  ( -0.7071067811865440200, 0.7071067811865511255, 0.000000000000000000 ) ) ;
#380 = EDGE_LOOP ( 'NONE', ( #391, #174, #390, #317 ) ) ;
#381 = LINE ( 'NONE', #268, #33 ) ;
#382 = VERTEX_POINT ( 'NONE', #160 ) ;
#383 = CARTESIAN_POINT ( 'NONE',  ( 0.000000000000000000, 30.00000000000000000, 15.00000000000000000 ) ) ;
#384 = ORIENTED_EDGE ( 'NONE', *, *, #7, .T. ) ;
#385 = ORIENTED_EDGE ( 'NONE', *, *, #193, .T. ) ;
#386 =( NAMED_UNIT ( * ) PLANE_ANGLE_UNIT ( ) SI_UNIT ( $, .RADIAN. ) );
#387 = FACE_OUTER_BOUND ( 'NONE', #24, .T. ) ;
#388 = PLANE ( 'NONE',  #285 ) ;
#389 = CLOSED_SHELL ( 'NONE', ( #49, #74, #92, #323, #189, #354, #70, #110, #292, #57, #129, #361 ) ) ;
#390 = ORIENTED_EDGE ( 'NONE', *, *, #411, .T. ) ;
#391 = ORIENTED_EDGE ( 'NONE', *, *, #400, .F. ) ;
#392 = CARTESIAN_POINT ( 'NONE',  ( 3.000000000000003553, 2.999999999999999556, 15.00000000000000000 ) ) ;
#393 = AXIS2_PLACEMENT_3D ( 'NONE', #210, #214, #340 ) ;
#394 = VERTEX_POINT ( 'NONE', #254 ) ;
#395 = DIRECTION ( 'NONE',  ( 0.000000000000000000, -1.000000000000000000, 0.000000000000000000 ) ) ;
#396 = VECTOR ( 'NONE', #76, 1000.000000000000000 ) ;
#397 = ORIENTED_EDGE ( 'NONE', *, *, #267, .F. ) ;
#398 = CARTESIAN_POINT ( 'NONE',  ( 0.000000000000000000, 30.00000000000000000, 15.00000000000000000 ) ) ;
#399 = LINE ( 'NONE', #8, #280 ) ;
#400 = EDGE_CURVE ( 'NONE', #185, #413, #363, .T. ) ;
#401 = PRODUCT_DEFINITION_FORMATION_WITH_SPECIFIED_SOURCE ( 'ANY', '', #415, .NOT_KNOWN. ) ;
#402 = LINE ( 'NONE', #109, #157 ) ;
#403 = FACE_OUTER_BOUND ( 'NONE', #208, .T. ) ;
#404 = DIRECTION ( 'NONE',  ( -0.000000000000000000, -0.000000000000000000, -1.000000000000000000 ) ) ;
#405 = AXIS2_PLACEMENT_3D ( 'NONE', #409, #244, #350 ) ;
#406 = CARTESIAN_POINT ( 'NONE',  ( 3.000000000000000000, 30.00000000000000000, -15.00000000000000000 ) ) ;
#407 = DIRECTION ( 'NONE',  ( -1.000000000000000000, 0.000000000000000000, -0.000000000000000000 ) ) ;
#408 = VECTOR ( 'NONE', #253, 1000.000000000000000 ) ;
#409 = CARTESIAN_POINT ( 'NONE',  ( 3.000000000000003553, 15.00000000000000000, 0.000000000000000000 ) ) ;
#410 =( NAMED_UNIT ( * ) SI_UNIT ( $, .STERADIAN. ) SOLID_ANGLE_UNIT ( ) );
#411 = EDGE_CURVE ( 'NONE', #310, #343, #325, .T. ) ;
#412 = CARTESIAN_POINT ( 'NONE',  ( 8.599999999999999645, 3.000000000000000000, 0.000000000000000000 ) ) ;
#413 = VERTEX_POINT ( 'NONE', #221 ) ;
#414 = FACE_OUTER_BOUND ( 'NONE', #95, .T. ) ;
#415 = PRODUCT ( '02_3D_Step_Files093wu302s', '02_3D_Step_Files093wu302s', '', ( #286 ) ) ;
#416 = SURFACE_STYLE_USAGE ( .BOTH. , #320 ) ;
ENDSEC;
END-ISO-10303-21;
