ISO-10303-21;
HEADER;
/* Generated by software containing ST-Developer
 * from STEP Tools, Inc. (www.steptools.com) 
 */

FILE_DESCRIPTION(
/* description */ ('DAMPING PLATE'),
/* implementation_level */ '2;1');

FILE_NAME(
/* name */ '3842538556.stp',
/* time_stamp */ '2026-03-17T09:38:30+01:00',
/* author */ ('andreas.svensson'),
/* organization */ (''),
/* preprocessor_version */ 'ST-DEVELOPER v20.1',
/* originating_system */ 'Autodesk Inventor 2026',
/* authorisation */ '');

FILE_SCHEMA (('AUTOMOTIVE_DESIGN { 1 0 10303 214 3 1 1 }'));
ENDSEC;

DATA;
#10=MECHANICAL_DESIGN_GEOMETRIC_PRESENTATION_REPRESENTATION('',(#13),#300);
#11=SHAPE_REPRESENTATION_RELATIONSHIP('SRR','None',#307,#12);
#12=ADVANCED_BREP_SHAPE_REPRESENTATION('',(#14),#299);
#13=STYLED_ITEM('',(#317),#14);
#14=MANIFOLD_SOLID_BREP('Solid1',#155);
#15=FACE_BOUND('',#44,.T.);
#16=FACE_BOUND('',#46,.T.);
#17=FACE_BOUND('',#48,.T.);
#18=PLANE('',#197);
#19=PLANE('',#198);
#20=PLANE('',#199);
#21=PLANE('',#200);
#22=CYLINDRICAL_SURFACE('',#184,19.5);
#23=TOROIDAL_SURFACE('',#180,18.5,1.00000000000001);
#24=FACE_OUTER_BOUND('',#35,.T.);
#25=FACE_OUTER_BOUND('',#36,.T.);
#26=FACE_OUTER_BOUND('',#37,.T.);
#27=FACE_OUTER_BOUND('',#38,.T.);
#28=FACE_OUTER_BOUND('',#39,.T.);
#29=FACE_OUTER_BOUND('',#40,.T.);
#30=FACE_OUTER_BOUND('',#41,.T.);
#31=FACE_OUTER_BOUND('',#42,.T.);
#32=FACE_OUTER_BOUND('',#43,.T.);
#33=FACE_OUTER_BOUND('',#45,.T.);
#34=FACE_OUTER_BOUND('',#47,.T.);
#35=EDGE_LOOP('',(#103,#104,#105));
#36=EDGE_LOOP('',(#106,#107,#108,#109));
#37=EDGE_LOOP('',(#110,#111,#112,#113));
#38=EDGE_LOOP('',(#114,#115,#116,#117));
#39=EDGE_LOOP('',(#118,#119,#120,#121));
#40=EDGE_LOOP('',(#122,#123,#124,#125,#126));
#41=EDGE_LOOP('',(#127,#128,#129,#130,#131));
#42=EDGE_LOOP('',(#132));
#43=EDGE_LOOP('',(#133));
#44=EDGE_LOOP('',(#134));
#45=EDGE_LOOP('',(#135));
#46=EDGE_LOOP('',(#136));
#47=EDGE_LOOP('',(#137));
#48=EDGE_LOOP('',(#138));
#49=CIRCLE('',#179,0.0100133608635922);
#50=CIRCLE('',#181,18.5);
#51=CIRCLE('',#182,1.00000000000001);
#52=CIRCLE('',#183,19.5);
#53=CIRCLE('',#185,19.5);
#54=CIRCLE('',#187,19.2);
#55=CIRCLE('',#189,11.7999999999979);
#56=CIRCLE('',#190,10.862781720293);
#57=CIRCLE('',#192,7.29999999999991);
#58=CIRCLE('',#193,7.29999999999991);
#59=CIRCLE('',#194,7.79999999999979);
#60=CIRCLE('',#196,8.03430456992618);
#61=LINE('',#259,#67);
#62=LINE('',#269,#68);
#63=LINE('',#273,#69);
#64=LINE('',#279,#70);
#65=LINE('',#287,#71);
#66=LINE('',#291,#72);
#67=VECTOR('',#205,0.0100133608851305);
#68=VECTOR('',#218,19.5);
#69=VECTOR('',#223,19.5);
#70=VECTOR('',#230,11.7999999999979);
#71=VECTOR('',#239,7.79999999999979);
#72=VECTOR('',#244,8.03430456992618);
#73=VERTEX_POINT('',#257);
#74=VERTEX_POINT('',#258);
#75=VERTEX_POINT('',#262);
#76=VERTEX_POINT('',#264);
#77=VERTEX_POINT('',#268);
#78=VERTEX_POINT('',#272);
#79=VERTEX_POINT('',#276);
#80=VERTEX_POINT('',#278);
#81=VERTEX_POINT('',#282);
#82=VERTEX_POINT('',#283);
#83=VERTEX_POINT('',#286);
#84=VERTEX_POINT('',#290);
#85=EDGE_CURVE('',#73,#74,#61,.T.);
#86=EDGE_CURVE('',#74,#74,#49,.T.);
#87=EDGE_CURVE('',#75,#75,#50,.T.);
#88=EDGE_CURVE('',#75,#76,#51,.T.);
#89=EDGE_CURVE('',#76,#76,#52,.T.);
#90=EDGE_CURVE('',#76,#77,#62,.T.);
#91=EDGE_CURVE('',#77,#77,#53,.T.);
#92=EDGE_CURVE('',#77,#78,#63,.T.);
#93=EDGE_CURVE('',#78,#78,#54,.T.);
#94=EDGE_CURVE('',#79,#79,#55,.T.);
#95=EDGE_CURVE('',#79,#80,#64,.T.);
#96=EDGE_CURVE('',#80,#80,#56,.T.);
#97=EDGE_CURVE('',#81,#82,#57,.T.);
#98=EDGE_CURVE('',#82,#81,#58,.T.);
#99=EDGE_CURVE('',#82,#83,#65,.T.);
#100=EDGE_CURVE('',#83,#83,#59,.T.);
#101=EDGE_CURVE('',#81,#84,#66,.T.);
#102=EDGE_CURVE('',#84,#84,#60,.T.);
#103=ORIENTED_EDGE('',*,*,#85,.T.);
#104=ORIENTED_EDGE('',*,*,#86,.F.);
#105=ORIENTED_EDGE('',*,*,#85,.F.);
#106=ORIENTED_EDGE('',*,*,#87,.F.);
#107=ORIENTED_EDGE('',*,*,#88,.T.);
#108=ORIENTED_EDGE('',*,*,#89,.T.);
#109=ORIENTED_EDGE('',*,*,#88,.F.);
#110=ORIENTED_EDGE('',*,*,#89,.F.);
#111=ORIENTED_EDGE('',*,*,#90,.T.);
#112=ORIENTED_EDGE('',*,*,#91,.T.);
#113=ORIENTED_EDGE('',*,*,#90,.F.);
#114=ORIENTED_EDGE('',*,*,#91,.F.);
#115=ORIENTED_EDGE('',*,*,#92,.T.);
#116=ORIENTED_EDGE('',*,*,#93,.T.);
#117=ORIENTED_EDGE('',*,*,#92,.F.);
#118=ORIENTED_EDGE('',*,*,#94,.F.);
#119=ORIENTED_EDGE('',*,*,#95,.T.);
#120=ORIENTED_EDGE('',*,*,#96,.T.);
#121=ORIENTED_EDGE('',*,*,#95,.F.);
#122=ORIENTED_EDGE('',*,*,#97,.F.);
#123=ORIENTED_EDGE('',*,*,#98,.F.);
#124=ORIENTED_EDGE('',*,*,#99,.T.);
#125=ORIENTED_EDGE('',*,*,#100,.F.);
#126=ORIENTED_EDGE('',*,*,#99,.F.);
#127=ORIENTED_EDGE('',*,*,#97,.T.);
#128=ORIENTED_EDGE('',*,*,#98,.T.);
#129=ORIENTED_EDGE('',*,*,#101,.T.);
#130=ORIENTED_EDGE('',*,*,#102,.F.);
#131=ORIENTED_EDGE('',*,*,#101,.F.);
#132=ORIENTED_EDGE('',*,*,#102,.T.);
#133=ORIENTED_EDGE('',*,*,#96,.F.);
#134=ORIENTED_EDGE('',*,*,#100,.T.);
#135=ORIENTED_EDGE('',*,*,#93,.F.);
#136=ORIENTED_EDGE('',*,*,#94,.T.);
#137=ORIENTED_EDGE('',*,*,#87,.T.);
#138=ORIENTED_EDGE('',*,*,#86,.T.);
#139=CONICAL_SURFACE('',#178,0.0100133608851305,0.785398166235827);
#140=CONICAL_SURFACE('',#186,19.5,0.785398163397541);
#141=CONICAL_SURFACE('',#188,11.7999999999979,0.230152823542552);
#142=CONICAL_SURFACE('',#191,7.79999999999979,0.523598775598097);
#143=CONICAL_SURFACE('',#195,8.03430456992618,0.230152823542685);
#144=ADVANCED_FACE('',(#24),#139,.F.);
#145=ADVANCED_FACE('',(#25),#23,.T.);
#146=ADVANCED_FACE('',(#26),#22,.T.);
#147=ADVANCED_FACE('',(#27),#140,.T.);
#148=ADVANCED_FACE('',(#28),#141,.T.);
#149=ADVANCED_FACE('',(#29),#142,.F.);
#150=ADVANCED_FACE('',(#30),#143,.F.);
#151=ADVANCED_FACE('',(#31),#18,.T.);
#152=ADVANCED_FACE('',(#32,#15),#19,.T.);
#153=ADVANCED_FACE('',(#33,#16),#20,.T.);
#154=ADVANCED_FACE('',(#34,#17),#21,.T.);
#155=CLOSED_SHELL('',(#144,#145,#146,#147,#148,#149,#150,#151,#152,#153,
#154));
#156=DERIVED_UNIT_ELEMENT(#159,1.);
#157=DERIVED_UNIT_ELEMENT(#302,-3.);
#158=DIMENSIONAL_EXPONENTS(0.,1.,0.,0.,0.,0.,0.);
#159=(
CONVERSION_BASED_UNIT('gram',#161)
MASS_UNIT()
NAMED_UNIT(#158)
);
#160=(
MASS_UNIT()
NAMED_UNIT(*)
SI_UNIT(.KILO.,.GRAM.)
);
#161=MASS_MEASURE_WITH_UNIT(MASS_MEASURE(0.001),#160);
#162=DERIVED_UNIT((#156,#157));
#163=MEASURE_REPRESENTATION_ITEM('density measure',
POSITIVE_RATIO_MEASURE(1.),#162);
#164=PROPERTY_DEFINITION_REPRESENTATION(#169,#166);
#165=PROPERTY_DEFINITION_REPRESENTATION(#170,#167);
#166=REPRESENTATION('material name',(#168),#299);
#167=REPRESENTATION('density',(#163),#299);
#168=DESCRIPTIVE_REPRESENTATION_ITEM('Generic','Generic');
#169=PROPERTY_DEFINITION('material property','material name',#309);
#170=PROPERTY_DEFINITION('material property','density of part',#309);
#171=DATE_TIME_ROLE('creation_date');
#172=APPLIED_DATE_AND_TIME_ASSIGNMENT(#173,#171,(#309));
#173=DATE_AND_TIME(#174,#175);
#174=CALENDAR_DATE(2026,9,3);
#175=LOCAL_TIME(9,13,32.,#176);
#176=COORDINATED_UNIVERSAL_TIME_OFFSET(0,0,.BEHIND.);
#177=AXIS2_PLACEMENT_3D('',#255,#201,#202);
#178=AXIS2_PLACEMENT_3D('',#256,#203,#204);
#179=AXIS2_PLACEMENT_3D('',#260,#206,#207);
#180=AXIS2_PLACEMENT_3D('',#261,#208,#209);
#181=AXIS2_PLACEMENT_3D('',#263,#210,#211);
#182=AXIS2_PLACEMENT_3D('',#265,#212,#213);
#183=AXIS2_PLACEMENT_3D('',#266,#214,#215);
#184=AXIS2_PLACEMENT_3D('',#267,#216,#217);
#185=AXIS2_PLACEMENT_3D('',#270,#219,#220);
#186=AXIS2_PLACEMENT_3D('',#271,#221,#222);
#187=AXIS2_PLACEMENT_3D('',#274,#224,#225);
#188=AXIS2_PLACEMENT_3D('',#275,#226,#227);
#189=AXIS2_PLACEMENT_3D('',#277,#228,#229);
#190=AXIS2_PLACEMENT_3D('',#280,#231,#232);
#191=AXIS2_PLACEMENT_3D('',#281,#233,#234);
#192=AXIS2_PLACEMENT_3D('',#284,#235,#236);
#193=AXIS2_PLACEMENT_3D('',#285,#237,#238);
#194=AXIS2_PLACEMENT_3D('',#288,#240,#241);
#195=AXIS2_PLACEMENT_3D('',#289,#242,#243);
#196=AXIS2_PLACEMENT_3D('',#292,#245,#246);
#197=AXIS2_PLACEMENT_3D('',#293,#247,#248);
#198=AXIS2_PLACEMENT_3D('',#294,#249,#250);
#199=AXIS2_PLACEMENT_3D('',#295,#251,#252);
#200=AXIS2_PLACEMENT_3D('',#296,#253,#254);
#201=DIRECTION('axis',(0.,0.,1.));
#202=DIRECTION('refdir',(1.,0.,0.));
#203=DIRECTION('center_axis',(0.,-2.22044604929955E-16,-1.));
#204=DIRECTION('ref_axis',(0.,1.,-2.22044604929955E-16));
#205=DIRECTION('',(-8.65956058693405E-17,-0.707106783193584,-0.707106779179511));
#206=DIRECTION('center_axis',(0.,2.22044604929955E-16,1.));
#207=DIRECTION('ref_axis',(0.,1.,-2.22044604929955E-16));
#208=DIRECTION('center_axis',(-2.08208642636458E-32,-2.22044604925031E-16,
-1.));
#209=DIRECTION('ref_axis',(0.,1.,-2.22044604925031E-16));
#210=DIRECTION('center_axis',(2.08208642636458E-32,-2.22044604925031E-16,
-1.));
#211=DIRECTION('ref_axis',(0.,1.,-2.22044604925031E-16));
#212=DIRECTION('center_axis',(-1.,1.22464679914735E-16,-6.37175720529198E-33));
#213=DIRECTION('ref_axis',(-1.22464679914735E-16,-1.,2.20621242072948E-16));
#214=DIRECTION('center_axis',(1.97847832880017E-32,-2.22400445638052E-16,
-1.));
#215=DIRECTION('ref_axis',(6.07716335728627E-64,1.,-2.22400445638052E-16));
#216=DIRECTION('center_axis',(0.,-2.22044604925031E-16,-1.));
#217=DIRECTION('ref_axis',(0.,1.,-2.22044604925031E-16));
#218=DIRECTION('',(0.,2.22044604925031E-16,1.));
#219=DIRECTION('center_axis',(0.,-2.22044604925031E-16,-1.));
#220=DIRECTION('ref_axis',(0.,1.,-2.22044604925031E-16));
#221=DIRECTION('center_axis',(0.,-2.22400445638052E-16,-1.));
#222=DIRECTION('ref_axis',(0.,1.,-2.22400445638052E-16));
#223=DIRECTION('',(8.65956056235574E-17,0.707106781186613,0.707106781186482));
#224=DIRECTION('center_axis',(0.,-2.22400445638052E-16,-1.));
#225=DIRECTION('ref_axis',(0.,1.,-2.22400445638052E-16));
#226=DIRECTION('center_axis',(0.,-2.20515696098785E-16,-1.));
#227=DIRECTION('ref_axis',(0.,1.,-2.20515696098785E-16));
#228=DIRECTION('center_axis',(0.,-2.20515696098785E-16,-1.));
#229=DIRECTION('ref_axis',(0.,1.,-2.20515696098785E-16));
#230=DIRECTION('',(2.79374167613937E-17,0.228126320020146,0.973631543302735));
#231=DIRECTION('center_axis',(0.,-2.20515696098785E-16,-1.));
#232=DIRECTION('ref_axis',(0.,1.,-2.20515696098785E-16));
#233=DIRECTION('center_axis',(0.,2.22400445638058E-16,1.));
#234=DIRECTION('ref_axis',(0.,-1.,2.22400445638058E-16));
#235=DIRECTION('center_axis',(0.,2.37633352873538E-16,1.));
#236=DIRECTION('ref_axis',(0.,-1.,2.37633352873538E-16));
#237=DIRECTION('center_axis',(0.,2.37633352873538E-16,1.));
#238=DIRECTION('ref_axis',(0.,-1.,2.37633352873538E-16));
#239=DIRECTION('',(-6.12323399573462E-17,0.499999999999825,0.866025403784539));
#240=DIRECTION('center_axis',(0.,-2.22400445638058E-16,-1.));
#241=DIRECTION('ref_axis',(0.,-1.,2.22400445638058E-16));
#242=DIRECTION('center_axis',(0.,-2.15914577407257E-16,-1.));
#243=DIRECTION('ref_axis',(0.,1.,-2.15914577407257E-16));
#244=DIRECTION('',(-2.79374167614095E-17,-0.228126320020276,-0.973631543302705));
#245=DIRECTION('center_axis',(0.,2.15914577407257E-16,1.));
#246=DIRECTION('ref_axis',(0.,1.,-2.15914577407257E-16));
#247=DIRECTION('center_axis',(0.,2.22044604925031E-16,1.));
#248=DIRECTION('ref_axis',(0.,-1.,2.22044604925031E-16));
#249=DIRECTION('center_axis',(0.,2.22044604925031E-16,1.));
#250=DIRECTION('ref_axis',(0.,-1.,2.22044604925031E-16));
#251=DIRECTION('center_axis',(0.,2.22044604925031E-16,1.));
#252=DIRECTION('ref_axis',(0.,-1.,2.22044604925031E-16));
#253=DIRECTION('center_axis',(0.,-2.22044604925031E-16,-1.));
#254=DIRECTION('ref_axis',(0.,1.,-2.22044604925031E-16));
#255=CARTESIAN_POINT('',(0.,0.,0.));
#256=CARTESIAN_POINT('Origin',(1.13686837721616E-10,-8.470329472543E-19,
2.13162842962158E-11));
#257=CARTESIAN_POINT('',(1.13686837721616E-10,1.11170639581892E-18,0.0100133608496034));
#258=CARTESIAN_POINT('',(1.13686838947899E-10,-0.0100133608635922,4.28546130750887E-11));
#259=CARTESIAN_POINT('',(1.13686836495333E-10,-0.0100133608851305,2.13162865196286E-11));
#260=CARTESIAN_POINT('Origin',(0.,0.,0.));
#261=CARTESIAN_POINT('Origin',(-1.1327982892113E-15,0.,1.));
#262=CARTESIAN_POINT('',(-3.3983948676339E-15,-18.5,4.13558076672871E-15));
#263=CARTESIAN_POINT('Origin',(0.,0.,0.));
#264=CARTESIAN_POINT('',(-3.52085954754864E-15,-19.5,1.));
#265=CARTESIAN_POINT('Origin',(-3.3983948676339E-15,-18.5,1.));
#266=CARTESIAN_POINT('Origin',(-1.19403062916867E-15,0.,1.));
#267=CARTESIAN_POINT('Origin',(0.,0.,2.84999999999991));
#268=CARTESIAN_POINT('',(-2.38806125833734E-15,-19.5,4.69999999999982));
#269=CARTESIAN_POINT('',(-2.38806125833734E-15,-19.5,2.84999999999991));
#270=CARTESIAN_POINT('Origin',(0.,4.10782519111288E-16,4.69999999999982));
#271=CARTESIAN_POINT('Origin',(0.,0.,4.69999999999983));
#272=CARTESIAN_POINT('',(-2.35132185436292E-15,-19.2,4.99999999999979));
#273=CARTESIAN_POINT('',(-2.38806125833734E-15,-19.5,4.69999999999983));
#274=CARTESIAN_POINT('Origin',(0.,6.67201336914059E-17,4.99999999999979));
#275=CARTESIAN_POINT('Origin',(0.,-8.67361737988404E-16,4.99999999999989));
#276=CARTESIAN_POINT('',(-1.44508322299362E-15,-11.7999999999979,4.99999999999989));
#277=CARTESIAN_POINT('Origin',(0.,-8.67361737988403E-16,4.99999999999989));
#278=CARTESIAN_POINT('',(-1.33030708635932E-15,-10.862781720293,9.00000000000001));
#279=CARTESIAN_POINT('',(-1.44508322299362E-15,-11.7999999999979,4.99999999999989));
#280=CARTESIAN_POINT('Origin',(0.,1.4701046406764E-17,9.));
#281=CARTESIAN_POINT('Origin',(0.,-8.56655355798803E-47,9.00000000000007));
#282=CARTESIAN_POINT('',(9.38955350435531E-16,-7.29999999999991,8.13397459621543));
#283=CARTESIAN_POINT('',(-8.93992163377556E-16,7.29999999999991,8.13397459621543));
#284=CARTESIAN_POINT('Origin',(0.,-9.61481343191971E-17,8.13397459621543));
#285=CARTESIAN_POINT('Origin',(0.,-9.61481343191971E-17,8.13397459621543));
#286=CARTESIAN_POINT('',(-9.5522450333491E-16,7.79999999999979,9.00000000000007));
#287=CARTESIAN_POINT('',(-9.5522450333491E-16,7.79999999999979,9.00000000000007));
#288=CARTESIAN_POINT('Origin',(0.,-5.27043822415279E-47,9.00000000000007));
#289=CARTESIAN_POINT('Origin',(0.,-8.67361737988404E-16,4.99999999999998));
#290=CARTESIAN_POINT('',(-9.83918537493505E-16,-8.03430456992618,4.99999999999998));
#291=CARTESIAN_POINT('',(-9.83918537493505E-16,-8.03430456992618,4.99999999999998));
#292=CARTESIAN_POINT('Origin',(0.,-8.67361737988404E-16,4.99999999999998));
#293=CARTESIAN_POINT('Origin',(-4.01715228496312,0.,5.));
#294=CARTESIAN_POINT('Origin',(-9.33139086014637,0.,9.));
#295=CARTESIAN_POINT('Origin',(-15.499999999999,0.,4.99999999999977));
#296=CARTESIAN_POINT('Origin',(-9.25500668041104,0.,0.));
#297=UNCERTAINTY_MEASURE_WITH_UNIT(LENGTH_MEASURE(0.01),#301,
'DISTANCE_ACCURACY_VALUE',
'Maximum model space distance between geometric entities at asserted c
onnectivities');
#298=UNCERTAINTY_MEASURE_WITH_UNIT(LENGTH_MEASURE(0.01),#301,
'DISTANCE_ACCURACY_VALUE',
'Maximum model space distance between geometric entities at asserted c
onnectivities');
#299=(
GEOMETRIC_REPRESENTATION_CONTEXT(3)
GLOBAL_UNCERTAINTY_ASSIGNED_CONTEXT((#297))
GLOBAL_UNIT_ASSIGNED_CONTEXT((#301,#303,#304))
REPRESENTATION_CONTEXT('','3D')
);
#300=(
GEOMETRIC_REPRESENTATION_CONTEXT(3)
GLOBAL_UNCERTAINTY_ASSIGNED_CONTEXT((#298))
GLOBAL_UNIT_ASSIGNED_CONTEXT((#301,#303,#304))
REPRESENTATION_CONTEXT('','3D')
);
#301=(
LENGTH_UNIT()
NAMED_UNIT(*)
SI_UNIT(.MILLI.,.METRE.)
);
#302=(
LENGTH_UNIT()
NAMED_UNIT(*)
SI_UNIT(.CENTI.,.METRE.)
);
#303=(
NAMED_UNIT(*)
PLANE_ANGLE_UNIT()
SI_UNIT($,.RADIAN.)
);
#304=(
NAMED_UNIT(*)
SI_UNIT($,.STERADIAN.)
SOLID_ANGLE_UNIT()
);
#305=SHAPE_DEFINITION_REPRESENTATION(#306,#307);
#306=PRODUCT_DEFINITION_SHAPE('',$,#309);
#307=SHAPE_REPRESENTATION('',(#177),#299);
#308=PRODUCT_DEFINITION_CONTEXT('part definition',#313,'design');
#309=PRODUCT_DEFINITION('3842538556','3842538556',#310,#308);
#310=PRODUCT_DEFINITION_FORMATION('',$,#315);
#311=PRODUCT_RELATED_PRODUCT_CATEGORY('3842538556','3842538556',(#315));
#312=APPLICATION_PROTOCOL_DEFINITION('international standard',
'automotive_design',2009,#313);
#313=APPLICATION_CONTEXT(
'Core Data for Automotive Mechanical Design Process');
#314=PRODUCT_CONTEXT('part definition',#313,'mechanical');
#315=PRODUCT('3842538556','3842538556','DAMPING PLATE',(#314));
#316=PRESENTATION_STYLE_ASSIGNMENT((#318));
#317=PRESENTATION_STYLE_ASSIGNMENT((#319));
#318=SURFACE_STYLE_USAGE(.BOTH.,#324);
#319=SURFACE_STYLE_USAGE(.BOTH.,#325);
#320=SURFACE_STYLE_RENDERING_WITH_PROPERTIES($,#332,(#322));
#321=SURFACE_STYLE_RENDERING_WITH_PROPERTIES($,#333,(#323));
#322=SURFACE_STYLE_TRANSPARENT(0.);
#323=SURFACE_STYLE_TRANSPARENT(0.);
#324=SURFACE_SIDE_STYLE('',(#326,#320));
#325=SURFACE_SIDE_STYLE('',(#327,#321));
#326=SURFACE_STYLE_FILL_AREA(#328);
#327=SURFACE_STYLE_FILL_AREA(#329);
#328=FILL_AREA_STYLE('',(#330));
#329=FILL_AREA_STYLE('',(#331));
#330=FILL_AREA_STYLE_COLOUR('',#332);
#331=FILL_AREA_STYLE_COLOUR('',#333);
#332=COLOUR_RGB('',0.749019607843137,0.749019607843137,0.749019607843137);
#333=COLOUR_RGB('',0.509803921568627,0.509803921568627,0.588235294117647);
ENDSEC;
END-ISO-10303-21;
