ISO-10303-21;
HEADER;
FILE_DESCRIPTION (( 'STEP AP203' ),
    '1' );
FILE_NAME ('3_842_536_321_Bosch.step',
    '2024-06-10T08:57:12',
    ( '' ),
    ( '' ),
    'SwSTEP 2.0',
    'SolidWorks 2014',
    '' );
FILE_SCHEMA (( 'CONFIG_CONTROL_DESIGN' ));
ENDSEC;

DATA;
#1 = DIRECTION ( 'NONE',  ( 0.0000000000000000000, -1.000000000000000000, 0.0000000000000000000 ) ) ;
#2 = CARTESIAN_POINT ( 'NONE',  ( 7.105426999999999700E-015, 9.000000000000007100, -1.531303211923262100E-014 ) ) ;
#3 = FACE_BOUND ( 'NONE', #141, .T. ) ;
#4 = AXIS2_PLACEMENT_3D ( 'NONE', #63, #124, #1 ) ;
#5 = DIRECTION ( 'NONE',  ( 0.0000000000000000000, 0.0000000000000000000, 1.000000000000000000 ) ) ;
#6 = ORIENTED_EDGE ( 'NONE', *, *, #201, .F. ) ;
#7 = ADVANCED_FACE ( 'NONE', ( #71 ), #81, .T. ) ;
#8 = CIRCLE ( 'NONE', #4, 9.000000000000000000 ) ;
#9 = PRODUCT_RELATED_PRODUCT_CATEGORY ( 'detail', '', ( #231 ) ) ;
#10 = CALENDAR_DATE ( 2024, 10, 6 ) ;
#11 = UNCERTAINTY_MEASURE_WITH_UNIT (LENGTH_MEASURE( 1.000000000000000100E-005 ), #109, 'distance_accuracy_value', 'NONE');
#12 = LINE ( 'NONE', #97, #172 ) ;
#13 = AXIS2_PLACEMENT_3D ( 'NONE', #178, #110, #223 ) ;
#14 = CYLINDRICAL_SURFACE ( 'NONE', #31, 6.250000000000000000 ) ;
#15 = CALENDAR_DATE ( 2024, 10, 6 ) ;
#16 = DIRECTION ( 'NONE',  ( 0.0000000000000000000, -1.000000000000000000, 0.0000000000000000000 ) ) ;
#17 = EDGE_LOOP ( 'NONE', ( #151, #137, #77, #135 ) ) ;
#18 = EDGE_CURVE ( 'NONE', #166, #120, #12, .T. ) ;
#19 = PLANE ( 'NONE',  #75 ) ;
#20 = DIRECTION ( 'NONE',  ( -1.000000000000000000, 0.0000000000000000000, 0.0000000000000000000 ) ) ;
#21 = APPROVAL_ROLE ( '' ) ;
#22 = APPROVAL_STATUS ( 'not_yet_approved' ) ;
#23 = DIRECTION ( 'NONE',  ( 1.000000000000000000, 0.0000000000000000000, 0.0000000000000000000 ) ) ;
#24 = MANIFOLD_SOLID_BREP ( 'Imported1', #61 ) ;
#25 = COORDINATED_UNIVERSAL_TIME_OFFSET ( 1, 0, .AHEAD. ) ;
#26 = EDGE_CURVE ( 'NONE', #114, #230, #225, .T. ) ;
#27 = ORIENTED_EDGE ( 'NONE', *, *, #78, .F. ) ;
#28 = AXIS2_PLACEMENT_3D ( 'NONE', #112, #23, #46 ) ;
#29 = DIRECTION ( 'NONE',  ( 1.000000000000000000, 0.0000000000000000000, 0.0000000000000000000 ) ) ;
#30 = EDGE_LOOP ( 'NONE', ( #170, #185, #157, #108 ) ) ;
#31 = AXIS2_PLACEMENT_3D ( 'NONE', #142, #64, #87 ) ;
#32 = LOCAL_TIME ( 10, 57, 12.00000000000000000, #245 ) ;
#33 = CIRCLE ( 'NONE', #210, 6.250000000000000000 ) ;
#34 = EDGE_CURVE ( 'NONE', #118, #88, #241, .T. ) ;
#35 = LOCAL_TIME ( 10, 57, 12.00000000000000000, #79 ) ;
#36 = ORIENTED_EDGE ( 'NONE', *, *, #60, .T. ) ;
#37 = DATE_AND_TIME ( #224, #35 ) ;
#38 = CARTESIAN_POINT ( 'NONE',  ( 7.105426999999999700E-015, 7.105426999999999700E-015, -1.421085000000000200E-014 ) ) ;
#39 = APPROVAL ( #143, 'UNSPECIFIED' ) ;
#40 = EDGE_CURVE ( 'NONE', #120, #230, #76, .T. ) ;
#41 = DIRECTION ( 'NONE',  ( 1.000000000000000000, 0.0000000000000000000, 0.0000000000000000000 ) ) ;
#42 = VECTOR ( 'NONE', #41, 1000.000000000000000 ) ;
#43 = DATE_AND_TIME ( #15, #190 ) ;
#44 = CARTESIAN_POINT ( 'NONE',  ( 7.105426999999999700E-015, 6.250000000000007100, -1.497625424946710000E-014 ) ) ;
#45 = CARTESIAN_POINT ( 'NONE',  ( 4.000000000000000000, 6.250000000000007100, -1.497625424946710000E-014 ) ) ;
#46 = DIRECTION ( 'NONE',  ( 0.0000000000000000000, -1.000000000000000000, 0.0000000000000000000 ) ) ;
#47 = DIRECTION ( 'NONE',  ( 0.0000000000000000000, 0.0000000000000000000, 1.000000000000000000 ) ) ;
#48 = APPROVAL ( #22, 'UNSPECIFIED' ) ;
#49 = PERSON_AND_ORGANIZATION ( #208, #202 ) ;
#50 = SHAPE_DEFINITION_REPRESENTATION ( #133, #238 ) ;
#51 = EDGE_CURVE ( 'NONE', #166, #114, #205, .T. ) ;
#52 = CYLINDRICAL_SURFACE ( 'NONE', #28, 9.000000000000000000 ) ;
#53 = CIRCLE ( 'NONE', #13, 6.250000000000000000 ) ;
#54 = ADVANCED_FACE ( 'NONE', ( #125, #153 ), #196, .F. ) ;
#55 = APPROVAL_DATE_TIME ( #43, #39 ) ;
#56 = PRODUCT_DEFINITION_FORMATION_WITH_SPECIFIED_SOURCE ( 'ANY', '', #231, .NOT_KNOWN. ) ;
#57 = ORIENTED_EDGE ( 'NONE', *, *, #173, .T. ) ;
#58 = DATE_AND_TIME ( #123, #115 ) ;
#59 = CC_DESIGN_SECURITY_CLASSIFICATION ( #86, ( #56 ) ) ;
#60 = EDGE_CURVE ( 'NONE', #180, #118, #215, .T. ) ;
#61 = CLOSED_SHELL ( 'NONE', ( #242, #169, #187, #7, #54, #226 ) ) ;
#62 = CARTESIAN_POINT ( 'NONE',  ( 7.105426999999999700E-015, 6.250000000000007100, -1.497625424946710000E-014 ) ) ;
#63 = CARTESIAN_POINT ( 'NONE',  ( 7.105426999999999700E-015, 7.105426999999999700E-015, -1.421085000000000200E-014 ) ) ;
#64 = DIRECTION ( 'NONE',  ( 1.000000000000000000, 0.0000000000000000000, 0.0000000000000000000 ) ) ;
#65 = CARTESIAN_POINT ( 'NONE',  ( 4.000000000000000000, 7.105426999999999700E-015, -1.421085000000000200E-014 ) ) ;
#66 = FACE_OUTER_BOUND ( 'NONE', #17, .T. ) ;
#67 = CARTESIAN_POINT ( 'NONE',  ( 4.000000000000000000, 7.105426999999999700E-015, -1.421085000000000200E-014 ) ) ;
#68 = APPLICATION_CONTEXT ( 'configuration controlled 3d designs of mechanical parts and assemblies' ) ;
#69 = DIRECTION ( 'NONE',  ( -1.000000000000000000, 0.0000000000000000000, 0.0000000000000000000 ) ) ;
#70 = PERSON_AND_ORGANIZATION_ROLE ( 'design_supplier' ) ;
#71 = FACE_OUTER_BOUND ( 'NONE', #197, .T. ) ;
#72 = CC_DESIGN_APPROVAL ( #39, ( #168 ) ) ;
#73 = EDGE_CURVE ( 'NONE', #180, #85, #33, .T. ) ;
#74 = DIRECTION ( 'NONE',  ( 1.000000000000000000, 0.0000000000000000000, 0.0000000000000000000 ) ) ;
#75 = AXIS2_PLACEMENT_3D ( 'NONE', #198, #69, #5 ) ;
#76 = CIRCLE ( 'NONE', #204, 9.000000000000000000 ) ;
#77 = ORIENTED_EDGE ( 'NONE', *, *, #201, .T. ) ;
#78 = EDGE_CURVE ( 'NONE', #230, #120, #233, .T. ) ;
#79 = COORDINATED_UNIVERSAL_TIME_OFFSET ( 1, 0, .AHEAD. ) ;
#80 = PERSON_AND_ORGANIZATION ( #208, #202 ) ;
#81 = CYLINDRICAL_SURFACE ( 'NONE', #100, 9.000000000000000000 ) ;
#82 = CC_DESIGN_PERSON_AND_ORGANIZATION_ASSIGNMENT ( #207, #182, ( #56 ) ) ;
#83 = DIRECTION ( 'NONE',  ( -1.000000000000000000, 0.0000000000000000000, 0.0000000000000000000 ) ) ;
#84 = CARTESIAN_POINT ( 'NONE',  ( 4.000000000000000000, 7.105426999999999700E-015, -1.421085000000000200E-014 ) ) ;
#85 = VERTEX_POINT ( 'NONE', #174 ) ;
#86 = SECURITY_CLASSIFICATION ( '', '', #218 ) ;
#87 = DIRECTION ( 'NONE',  ( 0.0000000000000000000, -1.000000000000000000, 0.0000000000000000000 ) ) ;
#88 = VERTEX_POINT ( 'NONE', #216 ) ;
#89 = MECHANICAL_CONTEXT ( 'NONE', #163, 'mechanical' ) ;
#90 = AXIS2_PLACEMENT_3D ( 'NONE', #199, #47, #181 ) ;
#91 = AXIS2_PLACEMENT_3D ( 'NONE', #84, #105, #126 ) ;
#92 = CARTESIAN_POINT ( 'NONE',  ( 7.105426999999999700E-015, 7.105426999999999700E-015, -1.421085000000000200E-014 ) ) ;
#93 = PERSON_AND_ORGANIZATION_ROLE ( 'creator' ) ;
#94 = EDGE_LOOP ( 'NONE', ( #113, #36, #237, #6 ) ) ;
#95 = APPROVAL_PERSON_ORGANIZATION ( #243, #134, #21 ) ;
#96 = CC_DESIGN_APPROVAL ( #134, ( #86 ) ) ;
#97 = CARTESIAN_POINT ( 'NONE',  ( 7.105426999999999700E-015, 9.000000000000007100, -1.531303211923262100E-014 ) ) ;
#98 = COORDINATED_UNIVERSAL_TIME_OFFSET ( 1, 0, .AHEAD. ) ;
#99 = ORIENTED_EDGE ( 'NONE', *, *, #51, .T. ) ;
#100 = AXIS2_PLACEMENT_3D ( 'NONE', #92, #145, #222 ) ;
#101 = APPROVAL_DATE_TIME ( #212, #48 ) ;
#102 = FACE_OUTER_BOUND ( 'NONE', #221, .T. ) ;
#103 = CC_DESIGN_PERSON_AND_ORGANIZATION_ASSIGNMENT ( #176, #220, ( #231 ) ) ;
#104 = DIRECTION ( 'NONE',  ( 0.0000000000000000000, -1.000000000000000000, 0.0000000000000000000 ) ) ;
#105 = DIRECTION ( 'NONE',  ( -1.000000000000000000, 0.0000000000000000000, 0.0000000000000000000 ) ) ;
#106 = CIRCLE ( 'NONE', #244, 6.250000000000000000 ) ;
#107 = EDGE_CURVE ( 'NONE', #85, #180, #106, .T. ) ;
#108 = ORIENTED_EDGE ( 'NONE', *, *, #26, .F. ) ;
#109 =( LENGTH_UNIT ( ) NAMED_UNIT ( * ) SI_UNIT ( .MILLI., .METRE. ) );
#110 = DIRECTION ( 'NONE',  ( -1.000000000000000000, 0.0000000000000000000, 0.0000000000000000000 ) ) ;
#111 = DATE_TIME_ROLE ( 'creation_date' ) ;
#112 = CARTESIAN_POINT ( 'NONE',  ( 7.105426999999999700E-015, 7.105426999999999700E-015, -1.421085000000000200E-014 ) ) ;
#113 = ORIENTED_EDGE ( 'NONE', *, *, #73, .F. ) ;
#114 = VERTEX_POINT ( 'NONE', #213 ) ;
#115 = LOCAL_TIME ( 10, 57, 12.00000000000000000, #183 ) ;
#116 = CC_DESIGN_DATE_AND_TIME_ASSIGNMENT ( #171, #236, ( #86 ) ) ;
#117 = AXIS2_PLACEMENT_3D ( 'NONE', #152, #179, #104 ) ;
#118 = VERTEX_POINT ( 'NONE', #45 ) ;
#119 = AXIS2_PLACEMENT_3D ( 'NONE', #232, #20, #235 ) ;
#120 = VERTEX_POINT ( 'NONE', #122 ) ;
#121 = DIRECTION ( 'NONE',  ( 0.0000000000000000000, -1.000000000000000000, 0.0000000000000000000 ) ) ;
#122 = CARTESIAN_POINT ( 'NONE',  ( 4.000000000000000000, 9.000000000000007100, -1.531303211923262100E-014 ) ) ;
#123 = CALENDAR_DATE ( 2024, 10, 6 ) ;
#124 = DIRECTION ( 'NONE',  ( -1.000000000000000000, 0.0000000000000000000, 0.0000000000000000000 ) ) ;
#125 = FACE_OUTER_BOUND ( 'NONE', #248, .T. ) ;
#126 = DIRECTION ( 'NONE',  ( 0.0000000000000000000, 0.0000000000000000000, 1.000000000000000000 ) ) ;
#127 = APPROVAL_STATUS ( 'not_yet_approved' ) ;
#128 =( NAMED_UNIT ( * ) PLANE_ANGLE_UNIT ( ) SI_UNIT ( $, .RADIAN. ) );
#129 = APPLICATION_PROTOCOL_DEFINITION ( 'international standard', 'config_control_design', 1994, #163 ) ;
#130 =( GEOMETRIC_REPRESENTATION_CONTEXT ( 3 ) GLOBAL_UNCERTAINTY_ASSIGNED_CONTEXT ( ( #11 ) ) GLOBAL_UNIT_ASSIGNED_CONTEXT ( ( #109, #128, #162 ) ) REPRESENTATION_CONTEXT ( 'NONE', 'WORKASPACE' ) );
#131 = ORIENTED_EDGE ( 'NONE', *, *, #73, .T. ) ;
#132 = CARTESIAN_POINT ( 'NONE',  ( 7.105426999999999700E-015, -8.999999999999992900, -1.421085000000000200E-014 ) ) ;
#133 = PRODUCT_DEFINITION_SHAPE ( 'NONE', 'NONE',  #168 ) ;
#134 = APPROVAL ( #127, 'UNSPECIFIED' ) ;
#135 = ORIENTED_EDGE ( 'NONE', *, *, #34, .F. ) ;
#136 = CC_DESIGN_APPROVAL ( #48, ( #56 ) ) ;
#137 = ORIENTED_EDGE ( 'NONE', *, *, #107, .F. ) ;
#138 = CC_DESIGN_PERSON_AND_ORGANIZATION_ASSIGNMENT ( #155, #93, ( #168 ) ) ;
#139 = DIRECTION ( 'NONE',  ( 0.0000000000000000000, -1.000000000000000000, 0.0000000000000000000 ) ) ;
#140 = DIRECTION ( 'NONE',  ( 0.0000000000000000000, -1.000000000000000000, 0.0000000000000000000 ) ) ;
#141 = EDGE_LOOP ( 'NONE', ( #149, #131 ) ) ;
#142 = CARTESIAN_POINT ( 'NONE',  ( 7.105426999999999700E-015, 7.105426999999999700E-015, -1.421085000000000200E-014 ) ) ;
#143 = APPROVAL_STATUS ( 'not_yet_approved' ) ;
#144 = APPROVAL_ROLE ( '' ) ;
#145 = DIRECTION ( 'NONE',  ( 1.000000000000000000, 0.0000000000000000000, 0.0000000000000000000 ) ) ;
#146 = EDGE_LOOP ( 'NONE', ( #229, #214 ) ) ;
#147 = LOCAL_TIME ( 10, 57, 12.00000000000000000, #98 ) ;
#148 = ORIENTED_EDGE ( 'NONE', *, *, #26, .T. ) ;
#149 = ORIENTED_EDGE ( 'NONE', *, *, #107, .T. ) ;
#150 = CC_DESIGN_PERSON_AND_ORGANIZATION_ASSIGNMENT ( #49, #70, ( #56 ) ) ;
#151 = ORIENTED_EDGE ( 'NONE', *, *, #60, .F. ) ;
#152 = CARTESIAN_POINT ( 'NONE',  ( 7.105426999999999700E-015, 7.105426999999999700E-015, -1.421085000000000200E-014 ) ) ;
#153 = FACE_BOUND ( 'NONE', #146, .T. ) ;
#154 = DIRECTION ( 'NONE',  ( 1.000000000000000000, 0.0000000000000000000, 0.0000000000000000000 ) ) ;
#155 = PERSON_AND_ORGANIZATION ( #208, #202 ) ;
#156 = DIRECTION ( 'NONE',  ( 1.000000000000000000, 0.0000000000000000000, 0.0000000000000000000 ) ) ;
#157 = ORIENTED_EDGE ( 'NONE', *, *, #40, .T. ) ;
#158 = LINE ( 'NONE', #192, #165 ) ;
#159 = DIRECTION ( 'NONE',  ( -1.000000000000000000, 0.0000000000000000000, 0.0000000000000000000 ) ) ;
#160 = DESIGN_CONTEXT ( 'detailed design', #68, 'design' ) ;
#161 = PERSON_AND_ORGANIZATION ( #208, #202 ) ;
#162 =( NAMED_UNIT ( * ) SI_UNIT ( $, .STERADIAN. ) SOLID_ANGLE_UNIT ( ) );
#163 = APPLICATION_CONTEXT ( 'configuration controlled 3d designs of mechanical parts and assemblies' ) ;
#164 = CC_DESIGN_PERSON_AND_ORGANIZATION_ASSIGNMENT ( #161, #200, ( #86 ) ) ;
#165 = VECTOR ( 'NONE', #156, 1000.000000000000000 ) ;
#166 = VERTEX_POINT ( 'NONE', #2 ) ;
#167 = AXIS2_PLACEMENT_3D ( 'NONE', #67, #83, #121 ) ;
#168 = PRODUCT_DEFINITION ( 'UNKNOWN', '', #56, #160 ) ;
#169 = ADVANCED_FACE ( 'NONE', ( #206 ), #14, .F. ) ;
#170 = ORIENTED_EDGE ( 'NONE', *, *, #51, .F. ) ;
#171 = DATE_AND_TIME ( #194, #147 ) ;
#172 = VECTOR ( 'NONE', #29, 1000.000000000000000 ) ;
#173 = EDGE_CURVE ( 'NONE', #114, #166, #8, .T. ) ;
#174 = CARTESIAN_POINT ( 'NONE',  ( 7.105426999999999700E-015, -6.249999999999993800, -1.421085000000000200E-014 ) ) ;
#175 = CARTESIAN_POINT ( 'NONE',  ( 4.000000000000000000, 7.105426999999999700E-015, -1.421085000000000200E-014 ) ) ;
#176 = PERSON_AND_ORGANIZATION ( #208, #202 ) ;
#177 = ORIENTED_EDGE ( 'NONE', *, *, #40, .F. ) ;
#178 = CARTESIAN_POINT ( 'NONE',  ( 4.000000000000000000, 7.105426999999999700E-015, -1.421085000000000200E-014 ) ) ;
#179 = DIRECTION ( 'NONE',  ( 1.000000000000000000, 0.0000000000000000000, 0.0000000000000000000 ) ) ;
#180 = VERTEX_POINT ( 'NONE', #62 ) ;
#181 = DIRECTION ( 'NONE',  ( 1.000000000000000000, 0.0000000000000000000, 0.0000000000000000000 ) ) ;
#182 = PERSON_AND_ORGANIZATION_ROLE ( 'creator' ) ;
#183 = COORDINATED_UNIVERSAL_TIME_OFFSET ( 1, 0, .AHEAD. ) ;
#184 = ORIENTED_EDGE ( 'NONE', *, *, #78, .T. ) ;
#185 = ORIENTED_EDGE ( 'NONE', *, *, #18, .T. ) ;
#186 = APPROVAL_PERSON_ORGANIZATION ( #228, #48, #240 ) ;
#187 = ADVANCED_FACE ( 'NONE', ( #66 ), #247, .F. ) ;
#188 = EDGE_CURVE ( 'NONE', #88, #118, #53, .T. ) ;
#189 = ORIENTED_EDGE ( 'NONE', *, *, #18, .F. ) ;
#190 = LOCAL_TIME ( 10, 57, 12.00000000000000000, #25 ) ;
#191 = VECTOR ( 'NONE', #74, 1000.000000000000000 ) ;
#192 = CARTESIAN_POINT ( 'NONE',  ( 7.105426999999999700E-015, -6.249999999999993800, -1.421085000000000200E-014 ) ) ;
#193 = DIRECTION ( 'NONE',  ( 0.0000000000000000000, -1.000000000000000000, 0.0000000000000000000 ) ) ;
#194 = CALENDAR_DATE ( 2024, 10, 6 ) ;
#195 = DIRECTION ( 'NONE',  ( 1.000000000000000000, 0.0000000000000000000, 0.0000000000000000000 ) ) ;
#196 = PLANE ( 'NONE',  #91 ) ;
#197 = EDGE_LOOP ( 'NONE', ( #189, #203, #148, #184 ) ) ;
#198 = CARTESIAN_POINT ( 'NONE',  ( 7.105426999999999700E-015, 7.105426999999999700E-015, -1.421085000000000200E-014 ) ) ;
#199 = CARTESIAN_POINT ( 'NONE',  ( 0.0000000000000000000, 0.0000000000000000000, 0.0000000000000000000 ) ) ;
#200 = PERSON_AND_ORGANIZATION_ROLE ( 'classification_officer' ) ;
#201 = EDGE_CURVE ( 'NONE', #85, #88, #158, .T. ) ;
#202 = ORGANIZATION ( 'UNSPECIFIED', 'UNSPECIFIED', '' ) ;
#203 = ORIENTED_EDGE ( 'NONE', *, *, #173, .F. ) ;
#204 = AXIS2_PLACEMENT_3D ( 'NONE', #65, #211, #16 ) ;
#205 = CIRCLE ( 'NONE', #119, 9.000000000000000000 ) ;
#206 = FACE_OUTER_BOUND ( 'NONE', #94, .T. ) ;
#207 = PERSON_AND_ORGANIZATION ( #208, #202 ) ;
#208 = PERSON ( 'UNSPECIFIED', 'UNSPECIFIED', 'UNSPECIFIED', ('UNSPECIFIED'), ('UNSPECIFIED'), ('UNSPECIFIED') ) ;
#209 = FACE_OUTER_BOUND ( 'NONE', #30, .T. ) ;
#210 = AXIS2_PLACEMENT_3D ( 'NONE', #249, #195, #140 ) ;
#211 = DIRECTION ( 'NONE',  ( -1.000000000000000000, 0.0000000000000000000, 0.0000000000000000000 ) ) ;
#212 = DATE_AND_TIME ( #10, #32 ) ;
#213 = CARTESIAN_POINT ( 'NONE',  ( 7.105426999999999700E-015, -8.999999999999992900, -1.421085000000000200E-014 ) ) ;
#214 = ORIENTED_EDGE ( 'NONE', *, *, #34, .T. ) ;
#215 = LINE ( 'NONE', #44, #42 ) ;
#216 = CARTESIAN_POINT ( 'NONE',  ( 4.000000000000000000, -6.249999999999993800, -1.421085000000000200E-014 ) ) ;
#217 = AXIS2_PLACEMENT_3D ( 'NONE', #175, #159, #139 ) ;
#218 = SECURITY_CLASSIFICATION_LEVEL ( 'unclassified' ) ;
#219 = CARTESIAN_POINT ( 'NONE',  ( 4.000000000000000000, -8.999999999999992900, -1.421085000000000200E-014 ) ) ;
#220 = PERSON_AND_ORGANIZATION_ROLE ( 'design_owner' ) ;
#221 = EDGE_LOOP ( 'NONE', ( #57, #99 ) ) ;
#222 = DIRECTION ( 'NONE',  ( 0.0000000000000000000, -1.000000000000000000, 0.0000000000000000000 ) ) ;
#223 = DIRECTION ( 'NONE',  ( 0.0000000000000000000, -1.000000000000000000, 0.0000000000000000000 ) ) ;
#224 = CALENDAR_DATE ( 2024, 10, 6 ) ;
#225 = LINE ( 'NONE', #132, #191 ) ;
#226 = ADVANCED_FACE ( 'NONE', ( #102, #3 ), #19, .T. ) ;
#227 = CC_DESIGN_DATE_AND_TIME_ASSIGNMENT ( #37, #111, ( #168 ) ) ;
#228 = PERSON_AND_ORGANIZATION ( #208, #202 ) ;
#229 = ORIENTED_EDGE ( 'NONE', *, *, #188, .T. ) ;
#230 = VERTEX_POINT ( 'NONE', #219 ) ;
#231 = PRODUCT ( '3_842_536_321_Bosch', '3_842_536_321_Bosch', '', ( #89 ) ) ;
#232 = CARTESIAN_POINT ( 'NONE',  ( 7.105426999999999700E-015, 7.105426999999999700E-015, -1.421085000000000200E-014 ) ) ;
#233 = CIRCLE ( 'NONE', #217, 9.000000000000000000 ) ;
#234 = APPROVAL_DATE_TIME ( #58, #134 ) ;
#235 = DIRECTION ( 'NONE',  ( 0.0000000000000000000, -1.000000000000000000, 0.0000000000000000000 ) ) ;
#236 = DATE_TIME_ROLE ( 'classification_date' ) ;
#237 = ORIENTED_EDGE ( 'NONE', *, *, #188, .F. ) ;
#238 = ADVANCED_BREP_SHAPE_REPRESENTATION ( '3_842_536_321_Bosch', ( #24, #90 ), #130 ) ;
#239 = APPLICATION_PROTOCOL_DEFINITION ( 'international standard', 'config_control_design', 1994, #68 ) ;
#240 = APPROVAL_ROLE ( '' ) ;
#241 = CIRCLE ( 'NONE', #167, 6.250000000000000000 ) ;
#242 = ADVANCED_FACE ( 'NONE', ( #209 ), #52, .T. ) ;
#243 = PERSON_AND_ORGANIZATION ( #208, #202 ) ;
#244 = AXIS2_PLACEMENT_3D ( 'NONE', #38, #154, #193 ) ;
#245 = COORDINATED_UNIVERSAL_TIME_OFFSET ( 1, 0, .AHEAD. ) ;
#246 = APPROVAL_PERSON_ORGANIZATION ( #80, #39, #144 ) ;
#247 = CYLINDRICAL_SURFACE ( 'NONE', #117, 6.250000000000000000 ) ;
#248 = EDGE_LOOP ( 'NONE', ( #27, #177 ) ) ;
#249 = CARTESIAN_POINT ( 'NONE',  ( 7.105426999999999700E-015, 7.105426999999999700E-015, -1.421085000000000200E-014 ) ) ;
ENDSEC;
END-ISO-10303-21;
